Fantomi

Sretan Božić svakome (Solo TAB)

by: dado145

Pronađi akord!

Ne znaš kako odsvirati neki od akorda pjesmi Sretan Božić svakome (Solo TAB)? Upiši akord u tražilicu i saznaj!

Traženi akord će se prikazati ovdje

Od istog izvođača

Pregledano 26395 puta
Pregledano 162432 puta
Pregledano 2768 puta
Pregledano 103387 puta
Trebaš ritam za ovu pjesmu? Pronađi ga ovdje
Evo pošto vidim da nema tabulatura za ovaj solo na stranici odlučio sam napisati tabove...

e|--------------------7----10-----------------------------------|
B|--------------8------------------------------------------------|
G|----7---9-----------------------------------------------------|
D|---------------------------------------------------------------|
A|---------------------------------------------------------------|
E|---------------------------------------------------------------|

e|----7------10------7--------10/12--------10--------------|
B|--------------------------------------------------------8------|
G|---------------------------------------------------------------|
D|---------------------------------------------------------------|
A|---------------------------------------------------------------|
E|---------------------------------------------------------------|

e|-10b----10---12/10----7----10--------------------------|
B|---------------------------------------------------------------|
G|---------------------------------------------------------------|
D|---------------------------------------------------------------|
A|---------------------------------------------------------------|
E|---------------------------------------------------------------|

e|------------10-----------------11----------------------------|
B|---/12-------------/12--------------------------------------|
G|---------------------------------------------------------------|
D|---------------------------------------------------------------|
A|---------------------------------------------------------------|
E|---------------------------------------------------------------|

e|--------------12-------10-------8---------------------------|
B|---12------------------10------------------------------------|
G|---------------------------------------------------------------|
D|---------------------------------------------------------------|
A|---------------------------------------------------------------|
E|---------------------------------------------------------------|

e|---------------------------------------------------------------|
B|---------------------------------------------------------------|
G|---7h9---7-----------------------7-----9-------------------|
D|-------------------9-----7h9-----7-------------5-----------|
A|---------------------------------------------------------------|
E|---------------------------------------------------------------|

Uživajte ...
Komentari

dado145 kaže:

Ovdje možete pogledati kako se svira solo https://www.youtube.com/watch?v=Vulk3Yf9xJo

12-12-2019 23:14