Thompson

Nema predaje

by: Canjo

Pronađi akord!

Ne znaš kako odsvirati neki od akorda pjesmi Nema predaje? Upiši akord u tražilicu i saznaj!

Traženi akord će se prikazati ovdje

Od istog izvođača

Pregledano 38386 puta
Pregledano 16548 puta
Pregledano 12470 puta
Pregledano 8804 puta
Pregledano 21137 puta
Trebaš ritam za ovu pjesmu? Pronađi ga ovdje
Akordi/Tabovi:
Evo ja sam malo preuredio jedan od tabova tako da bi zvucio kako ja cujem

Marko Perkovič Thompson - Nema predaje

Uvod

e--------------------------------------
B-----------------------------10-8-----
G-9------7--------9-----7---9------9-7-
D---10-----7--------10----7------------
A--------------------------------------
E--------------------------------------

e-----------------------------8-7-------
B--------------------------10-----10-8--
G-9-----7------9-----7---9--------------
D---10----7------10----7----------------
A---------------------------------------
E---------------------------------------


A5 (palm mute)
Mili Bože čudnih li vremena,
A5 (palm mute)
da budućnost nema sjaja,
A5 (palm mute)
moj je narod savio ramena,
A5 (palm mute)               C B
a bio je hrabriji od zmaja.

A5(štopati)
Mili Bože apsurdnih vremena,
A5 (štopati)
kako li se nositi sa time,
A5 (štopati)
sad Partija opet pravdu dijeli,
A5 (štopati)
a Hrvatsku nisu htjeli.

F     G              A5
Često jude pravednima sude,
F      G                 F
svaku obijest kaznila je povijest.

Gx3


C         G
NEMA PREDAJE,
         C            G
PJEVAJMO, SINOVI POBJEDE,
         D                Am
MOGU NAS LOMITI AL' NEĆE SLOMITI,
        G              Am
KAD NAM SRCA TUKU ZAJEDNO.

C         G
NEMA PREDAJE,
          C           G
PJEVAJMO, SINOVI POBJEDE,
       D               Am
ONI ĆE MRZITI, MI ĆEMO LJUBITI,
      G
SVAKU STOPU SVOG, DOMA JEDINOG


e--------------------------------------
B-----------------------------10-8-----
G-9------7--------9-----7---9------9-7-
D---10-----7--------10----7------------
A--------------------------------------
E--------------------------------------

e-----------------------------8-7-------
B--------------------------10-----10-8--
G-9-----7------9-----7---9--------------
D---10----7------10----7----------------
A---------------------------------------
E---------------------------------------


A5(palm mute)
Mili Bože je li to moguće,
A5(palm mute)
prkosili i bombi i metku,
A5(palm mute)
izborili hrvatsko svanuće,
A5(palm mute)             C B
sad smo opet na početku.

A5(palm mute)
Dobivamo političke pljuske,
A5(palm mute)
iskrivljuju povijest u tišini,
A5(palm mute)
vodaju nas k'o u magli guske,
A5(palm mute)
a pobjednici na margini.

F      G              A5
Često jude pravednima sude,
F      G                 F
svaku obijest kaznila je povijest.

Gx3

C         G
NEMA PREDAJE,
          C           G
PJEVAJMO, SINOVI POBJEDE,
         D                Am
MOGU NAS LOMITI AL' NEĆE SLOMITI,
        G              Am
KAD NAM SRCA TUKU ZAJEDNO.


C         G
NEMA PREDAJE,
         C            G
PJEVAJMO, SINOVI POBJEDE,
       D               Am
ONI ĆE MRZITI, MI ĆEMO LJUBITI,
      G                 
SVAKU STOPU SVOG, DOMA JEDINOG.


Am             Am



Zapucat će gromovi,
ugasit će svijeće,
sve živote i ljepote,
al' ideju neće.

Dignut će se grobovi,
za pobjede nove,
gdje ste sada sokolovi,
obranimo snove.



C*        G*
NEMA PREDAJE,
          C*          G*
PJEVAJMO, SINOVI POBJEDE,
         D*              Am*
MOGU NAS LOMITI AL' NEĆE SLOMITI,
        G*            Am
KAD NAM SRCA TUKU ZAJEDNO.


C         G
NEMA PREDAJE,
         C            G
PJEVAJMO, SINOVI POBJEDE,
       D               Am
ONI ĆE MRZITI, MI ĆEMO LJUBITI,
      G                 
SVAKU STOPU SVOG, DOMA JEDINOG.


Završetak


e--------------------------------------
B-----------------------------10-8-----
G-9------7--------9-----7---9------9-7-
D---10-----7--------10----7------------
A--------------------------------------
E--------------------------------------

e-----------------------------8-7-------
B--------------------------10-----10-8--
G-9-----7------9-----7---9--------------
D---10----7------10----7----------------
A---------------------------------------
E---------------------------------------

e---------------------------------------
B---------------------------------------
G---------------------------------------
D-2-2-2-2--2-2-2-2--2-2--2-2-2-2--5--4--
A-0-0-0-0--0-0-0-0--0-0--0-0-0-0--3--2--
E---------------------------------------
  * * * *  * * * *  * *  * * * * 

e-----------------------------------------
B-----------------------------------------
G-----------------------------------------
D-2-2-2-2--2-2-2-2--2-2--2-2-2-2--2-2-2-2-
A-0-0-0-0--0-0-0-0--0-0--0-0-0-0--0-0-0-0-
E-----------------------------------------
Komentari

truli45 kaže:

Odlično super čuješ bez greške.

23-03-2018 12:18

Canjo kaže:

hvala truli45

23-03-2018 21:30