M.O.R.T.

Buka u glavi

by: Sman

Pronađi akord!

Ne znaš kako odsvirati neki od akorda pjesmi Buka u glavi? Upiši akord u tražilicu i saznaj!

Traženi akord će se prikazati ovdje

Od istog izvođača

Pregledano 551 puta
Pregledano 396 puta
Pregledano 581 puta
Pregledano 925 puta
Pregledano 2244 puta
Trebaš ritam za ovu pjesmu? Pronađi ga ovdje
Akordi/Tabovi:
Intro:
G------------------------------2--4-5-4-2-
D--------------------------------------------
A----------0------------------------------------
E-----0--------------------------------------

G----------------------2-4-5-5/7-5-4---------
D-------------------------------------------
A------0----------------------------------------
E--------------------------------------------------

G----------------------2-4-5-5/7-5-4-----------------------
D----------------------------------------------------------
A------0------------------------------------------------0-----
E------------------------------------------------------------

Glavni riff:
G-2---2---2---2---4---4---4---4---5---5---5---5---4---4---4---4---
D-----------------------------------------------------------------
A---0---0---0---0---0---0---0---0---0---0---0---0---0---0---0---0-
E------------------------------------------------------------------

„Bridge“ između strofa:
G---0h2---2---2/4---4---4/5---5---5/4---4-------------------------
D--------------------------------------------------------------------
A---0-----------0h2-------2/3-------3/2-----------------
E--------------------------------------------------

sve u svemu, samo povečavate tempo i dinamiku kako pjesma napreduje,
riff je uvijek isti
Komentari
Još nema komentara