Prljavo Kazalište

Djevojka od milijun dolara

by:

Pronađi akord!

Ne znaš kako odsvirati neki od akorda pjesmi Djevojka od milijun dolara? Upiši akord u tražilicu i saznaj!

Traženi akord će se prikazati ovdje

Od istog izvođača

Pregledano 55162 puta
Pregledano 12188 puta
Pregledano 30272 puta
Pregledano 15560 puta
Pregledano 6457 puta
Trebaš ritam za ovu pjesmu? Pronađi ga ovdje
Akordi/Tabovi:
Riff1//
         Dm                  F                      C                    Am
E ------------------------------------------------------------------------------------l
B -----10-6-8-10----10-6-8-10----10-6-8-10----10-6-8-10-8-6-3----l
G ------------------------------------------------------------------------------------l
D ------------------------------------------------------------------------------------l
A ------------------------------------------------------------------------------------l
E ------------------------------------------------------------------------------------l
Riff2//
E ---------------------l
B -----6-6-5-3------l
G ---------------------l
D ---------------------l
A ---------------------l
E ---------------------l
Riff3//
E-------------------------------------------------------------------l
B-------------------------------------------------------------------l
G-------------------------------------------------------------------l
D----7-3-5-7---7-3-5-7---7-3-5-7---7-3-5-7-5-3-0------l
A-------------------------------------------------------------------l
E-------------------------------------------------------------------l

Solo1

E--12-12-12-12-12-12-12-12--8-8-8-8-8-8-8-8-8-8-8-8-8-8-8-8-5-5-5-5-5-5-5-5----12-12-12-12-12-12-12-12--8-8-8-8-8-8-8-8-12-12-12-12-12-12-12-12-17-17-17-17-17-17-17-17---l
B---------------------------------------------------------------------------------------------------------------------------------------------------------------------------------------------------l
G---------------------------------------------------------------------------------------------------------------------------------------------------------------------------------------------------l
D---------------------l
A---------------------l
E---------------------l

Solo2
E--------5-------5------5-------5----------------------------l
B---------------------------------------------------------------l
G---7-------6-------5-------4-------3-----------------------l
D---------------------------------------------------------------l
A---------------------------------------------------------------l
E--------------------------------------------------------------l

Uvod:   solo gitara - Riff1  x 2
              ritam gitara-Dm-F-C-Am-

Dm                         F
Na lice nanosis rumenilo
C                 Am
na oci fino sjenilo  Riff2
Dm                         F
u crnoj haljini do bedara 
C                    Am
izgledas kao djevojka od milijun dolara Riff1

djevojka od milijun dolara  Riff1

Dm                          F
Koliko strahova si sakrila
C                               Am
pod svojim laznim noktima  riff2
Dm                            F
musko se oko lako zavara
C                     Am
izgledas kao djevojka od milijun dolara  Riff1

djevojka od milijun dolara  Riff1

Potrajat ce duso samo tren  Solo2

i jos ne znas da si svima plijen  Solo2
Dm           F                     C
i na kraju kad se probude

kasno je   Riff1 x 2

Dm                                F
Nocas se nekom srce prelama
C                Am
tko te voli kao ja  Riff2
Dm                               F
i dok se lift za tobom zatvara
C                    Am
izgledas kao djevojka od milijun dolara  Riff1

djevojka od milijun dolara  Riff1

Djevojka od milijun dolara   Riff1

Potrajat ce duso samo tren  Solo2

i jos ne znas da si svima plijen  Solo2
Dm           F                     C
i na kraju kad se probude

kasno je   Riff3 x 7
Solo1 pocinje kada se treci put svira Riff3
I na kraju  Dm
Komentari