Prljavo Kazalište

MODERNA DJEVOJKA (1980)

by: KarabajaX

Pronađi akord!

Ne znaš kako odsvirati neki od akorda pjesmi MODERNA DJEVOJKA (1980)? Upiši akord u tražilicu i saznaj!

Traženi akord će se prikazati ovdje

Od istog izvođača

Pregledano 2242 puta
Pregledano 2168 puta
Pregledano 113741 puta
Pregledano 7107 puta
Pregledano 2922 puta
Trebaš ritam za ovu pjesmu? Pronađi ga ovdje
Akordi/Tabovi:
MODERNA DJEVOJKA
Prljavo Kazaliste


Intro: F A#5 C5
|--------------------------------------------------------------|
|--6--5-6---6--5-6---6--5-6---6--5---6--5-6---6--5-6---6--5-6--|
|--------------------------------------------------------------|
|--------------------------------------------------------------|
|--------------------------------------------------------------|
|--------------------------------------------------------------|

F         
Ona radi u tvornici
F                              A#5
Ne sanja isto sto i druge zene
A#5                 C5
Ona sanja drugi svijet

F
Ona sanja drugi svijet
F                     A#5
Crvena svijetla kabare, hej
A#5   C5              A#5  C5
Ona sanja drugi svijet


A#5        C5             F   
Nesto je zove pusti stroj
A#5        C5          F
Nesto je zove pusti stroj
A#5     C5          F           
Ti si tako moderna djevojka
A#5     C5          F
Ti si tako moderna djevojka
F       C5          F           
Ti si tako moderna djevojka
A#5     C5          F
Ti si tako moderna djevojka


|---------------------6p5----6p5----6p5--|
|--6--8br-8-6--5-6-8------6------6-------|
|----------------------------------------|
|----------------------------------------|
|----------------------------------------|
|----------------------------------------|

F
Ona radi u tvornici
F
Ona pomalo vene
A#5                C5
Ona sanja drugi svijet

F
Crvena svijetla sad se pale
F                  A#5
Ona odlazi u kabare, hej
A#     C5         A#5     C5
Ona je nasla svoj svijet


A#5        C5             F   
Nesto je zove pusti stroj
A#5        C5          F
Nesto je zove pusti stroj
A#5     C5          F           
Ti si tako moderna djevojka
A#5     C5          F
Ti si tako moderna djevojka
F       C5          F           
Ti si tako moderna djevojka
A#5     C5          F
Ti si tako moderna djevojka

    F                          A#5                    C5   
|-----------------------------------------------------------------|
|--6--5-6---6--5-6---6--5-6---6br-5-6-----6----6---6--------------|
|---------------------------------------7----5---------7br--5-5---|
|------------------------------------------------7----------------|
|-----------------------------------------------------------------|
|-----------------------------------------------------------------|
   
    A#5   C5         F
|-------------------6p5----6p5----6p5--|
|--6--8br-6--5-6-8------6------6-------|
|--------------------------------------| 
|--------------------------------------|
|--------------------------------------|
|--------------------------------------|

A#5     C5          F           
Ti si tako moderna djevojka
A#5     C5          F
Ti si tako moderna djevojka (ostani tu)
F       C5          F           
Ti si tako moderna djevojka (ostani...)
A#5     C5          F
Ti si tako moderna djevojka

  A#5  C5  F
e|--------------------------------------|
B|----------5-6----6-5----------5-6-----|
D|-3—-5h7p5-----------5-3—5h7p5---------| 
G|--------------------------------------|
A|--------------------------------------|
E|--------------------------------------|
Komentari