Hypocrisy

Paradox

by:

Pronađi akord!

Ne znaš kako odsvirati neki od akorda pjesmi Paradox? Upiši akord u tražilicu i saznaj!

Traženi akord će se prikazati ovdje

Od istog izvođača

Pregledano 1659 puta
Pregledano 1479 puta
Pregledano 1630 puta
Pregledano 1634 puta
Pregledano 1552 puta
Trebaš ritam za ovu pjesmu? Pronađi ga ovdje
Akordi/Tabovi:
Tuning:"B"E"A"D"F#"B"



Lead 1                                                            1st time
|--------------------------------------------------------------------------|
|-----------8-----------------8-----------------8--------------------------|
|-----9-10-----10-9-----9-10-----10-9-----9-10-----10-9-----------7--------|
|--7-----------------7-----------------7-----------------7--10-9-----10-9--|
|--------------------------------------------------------------------------|
|--------------------------------------------------------------------------|



                                                                   2nd time
|--------------------------------------------------------------------------|
|-----------8-----------------8-----------------8-----------------8--------|
|-----9-10-----10-9-----9-10-----10-9-----9-10-----10-9--7--10-9-----10-9--|
|--7-----------------7-----------------7-----------------------------------|
|--------------------------------------------------------------------------|
|--------------------------------------------------------------------------|



Riff 1                                                             1st time
|--------------------------------------------------------------------------|
|--------------------------------------------------------------------------|
|--------------------------------------------------------------------------|
|--2-----------------------------------7-----------------5-----------------|
|--2----------------2------------------7-----------------3--------5--------|
|--0----------------0------------------5--------------------------3--------|



                                                                   2nd time
|--------------------------------------------------------------------------|
|-----------------------------------------------------------------6--------|
|--------------------------------------------------------5--8--7-----8--7--|
|--2-----------------------------------7-----------------------------------|
|--2---------------2-------------------7-----------------------------------|
|--0---------------0-------------------5-----------------------------------|



Lead 2
|--------------------------------------------------------------------------
|-----------8-----------------8-----------------8-----------------8--------
|-----9-10-----10-9-----9-10-----10-9-----9-10-----10-9-----9-10-----10-9--
|--7-----------------7-----------------7-----------------7-----------------
|--------------------------------------------------------------------------
|--------------------------------------------------------------------------




--------------------------------------------------------------------------|
-----------8-----------------8-----------------8-----------------8--------|
-----9-10-----10-9-----9-10-----10-9-----9-10-----10-9--7--10-9-----10-9--|
--7-----------------7-----------------7-----------------------------------|
--------------------------------------------------------------------------|
--------------------------------------------------------------------------|



Riff 2
|-------------------------------------------------------------------------
|-------------------------------------------------------------------------
|-------------------------------------------------------------------------
|--2-----------------------------------7----------------------------------
|--2-----------------2-----------------7-----------------7----------------
|--0-----------------0-----------------5-----------------5----------------




--------------------------------------------------------------------------|
-----------------------------------------------------------------6--------|
--------------------------------------------------------5--8--7-----8--7--|
--2-----------------------------------7-----------------------------------|
--2-----------------2-----------------7-----------------------------------|
--0-----------------0-----------------5-----------------------------------|



Riff 3                                                              Gtr I
|-------------------------------------------------------------------------|
|-------------------------------------------------------------------------|
|-------------------------------------------------------------------------|
|---2----------------4----------------5----------------7------------------|
|---2----------------4----------------5----------------7------------------|
|---0----------------2----------------3----------------5------------------|



                                                                    Gtr II
|-------------------------------------------------------------------------|
|-------------------------------------------------------------------------|
|---2----------------4----------------5----------------7------------------|
|---2----------------4----------------5----------------7------------------|
|---0----------------2----------------3----------------5------------------|
|-------------------------------------------------------------------------|



Riff 4                                                              Gtr I
|-------------------------------------------------------------------------|
|-------------------------------------------------------------------------|
|-------------------------------------------------------------------------|
|-------------------------------------------------------------------------|
|---2222222222222222-4444444444444444-5555555555555555-7777777777777777---|
|-------------------------------------------------------------------------|



                                                                    Gtr II
|-------------------------------------------------------------------------|
|-------------------------------------------------------------------------|
|-------------------------------------------------------------------------|
|---2222222222222222-4444444444444444-5555555555555555-7777777777777777---|
|-------------------------------------------------------------------------|
|-------------------------------------------------------------------------|


   
Fill 1
||------------------||
||------------------||
||------------------||
||--2-2-2-2-2-2--2--||
||--2-2-2-2-2-2--2--||
||--0-0-0-0-0-0--0--||
Pm . . . , , ,



Riff 5                                                       Gtr I
|------------------------------------------------------------------|
|------------------------------------------------------------------|
|--9--------------------------------9------------------------------|
|--9----9^---7--9--10^---9--7--9----9----9^---7--9--10^---9--------|
|--7--------------------------------7--------------------------8~--|
|--0--------------------------------0------------------------------|



                                                             Gtr II
|------------------------------------------------------------------|
|------------------------------------------------------------------|
|--9--------------------------------9------------------------------|
|--9---------------10---------------9----------------7-------------|
|--7---------------10---------------7----------------7-------------|
|--0----------------8---------------0----------------5-------------|



Riff 6 - A                                                           Gtr I
|--------------------------------------------------------------------------|
|--------------------------------------------------------------------------|
|--9--------------------------------9----------------------------7---------|
|--9----9----7--9--10^-9----7--9----9----9----7--9--10^-9----10-----9--10--|
|--7--------------------------------7--------------------------------------|
|--0--------------------------------0--------------------------------------|



Riff 6 - B                                                         Gtr II
|--------------------------------------------------------------------------|
|--------------------------------------------------------------------------|
|--------------------------------------------------------------------------|
|--2----9----7--9--10--9----7--9----2----9----7--9--10--9---10--12--9--10--|
|--2----9----7--9--10--9----7--9----2----9----7--9--10--9---10--12--9--10--|
|--0----7----5--7---8--7----5--7----0----7----5--7---8--7----8--10--7---8--|




Riff 6 - C                                                         Gtr III
|--------------------------------------------------------------------------|
|--------------------------------------------------------------------------|
|--------------------------------------------------------------------------|
|--2----9----77-99-1010-99--77-99---2----9----77-99-1010-99-10--12--9--10--|
|--2----9----77-99-1010-99--77-99---2----9----77-99-1010-99-10--12--9--10--|
|--0----7----55-77--8-8-77--55-77---0----7----55-77--8-8-77--8--10--7---8--|
pm           .. ..  . . ..  .. ..             .. ..  . . ..  .   .  .   .



Riff 7                                                         Gtr I
|--------------------------------------------------------------------|
|--------------------------------------------------------------------|
|--------------------------------------------------------------------|
|--7--------------------------------7--------------------------------|
|--7--------------------------------7------------------------8^-p-7--|
|--5------5-h-8-p-7--8-p-7--5-h-7---5------5-h-8-p-7--8-p-7----------|



                                                               Gtr II
|--------------------------------------------------------------------|
|--------------------------------------------------------------------|
|--------------------5---------------------------------------9-------|
|--7-----------------5------5-------7----------------10------9-------|
|--7-----------------3------5-------7----------------10------7-------|
|--5------------------------3-------5-----------------8--------------|



SONG STRUCTURE:

Lead ( 1 ) x 4 Gtr I
Riff ( 1 ) x 4 Gtr II
Lead ( 2 ) x 2 Gtr I
Riff ( 2 ) x 2 Gtr II
Riff ( 3 ) x 2
Fill ( 1 ) x 1
Riff ( 4 ) x 2
Fill ( 1 ) x 1
Riff ( 5 ) x 2
Riff ( 3 ) x 2
Fill ( 1 ) x 1
Riff ( 4 ) x 4
Riff ( 6 ) x 4
Riff ( 7 ) x 2
Lead ( 1 ) x 2 Gtr I
Riff ( 3 ) x 2 Gtr II
Riff ( 4 ) x 4
Fill ( 1 ) x 1
Riff ( 6 ) x 6 Fade out
End!
Komentari
Još nema komentara