Parni Valjak

TANKI ŽIVCI (Cijela)

by: KarabajaX

Pronađi akord!

Ne znaš kako odsvirati neki od akorda pjesmi TANKI ŽIVCI (Cijela)? Upiši akord u tražilicu i saznaj!

Traženi akord će se prikazati ovdje

Od istog izvođača

Pregledano 1885 puta
Pregledano 5090 puta
Pregledano 8170 puta
Pregledano 104800 puta
Pregledano 4695 puta
Trebaš ritam za ovu pjesmu? Pronađi ga ovdje
Akordi/Tabovi:
TANKI ŽIVCI
Parni Valjak

Intro: Em G A  E G A
 
   G
e|--------------|
B|--------------|
G|--------------|
D|--------------|
A|--------------|
E|--3-2-3--5----|

Em
Čitaj mi s usana ponovo,
   C            Em
ni ovaj put nam nije uspjelo.
Em               A     Em
Čitaj mi s usana ponovo,
Am                  Em
vidiš da je krivo krenulo.

Em                  G
Pa imam tanke živce,
A     Em         G
tako tanke živce,
A     Em         G
jako tanke živce
A    E
imam ja.

    G     Am
e|--------------|
B|--------------|
G|--------------|
D|--------------|
A|--------------|
E|--3-2-3--5----|

Em                         A
Nije vrijeme, porez nema varanja,
C             Em
kada jednom prođe, prošlo je.
I uvijek netko dođe svjetla ugasi,
još jučer klinci, sad smo odrasli.

Em                  G
Pa imam tanke živce,

    G    Am
e|--------------|
B|--------------|
G|--------------|
D|--------5-----|
A|---7--5----7--|
E|--------------|

Am    Em
tako tanke živce,
A     E          G
jako tanke živce
Am    E
imam ja.

    G     Am
e|--------------|
B|--------------|
G|--------------|
D|--------------|
A|--------------|
E|--3-2-3--5----|

Solo:
e|---------------------------------------------------------------|
B|-12-10------------------------12-10----------------------------|
G|-------12-12-11-9-11-9----9---------12-12-11-9-11-9------------|
D|-----------------------12---------------------------12-11------|
A|---------------------------------------------------------------|
E|---------------------------------------------------------------|

e|---------------------------------------------------------------|
B|-12-10---------------------------------------------------------|
G|------12-12-11-9-11-9----9---7/9--9/12\9-----------------------|
D|----------------------12-----------------12-12-11--------------|
A|---------------------------------------------------------------|
E|------------------------------------------------------3-2-3-5--|

E
Ušlo je u ljude nešto prokleto,
nešto crno, nešto nesretno.
Nedostaje mi okus radosti,
     Em
nedostaje mi miris mladosti.

Pa imam tanke živce,
tako tanke živce,
A    Em        G   Am  Em
jako tanke živce od vremena.

A         Em         D
Sad imam tanke živce,
D     C#       C
tako tanke živce,
C    H        A   
jako tanke živce.
E
Aj-jaj-ja, korak sam do pucanja.

Solo

   G A Em
e|---------------|
B|-10p12-10------|
G|---------12-11-|
D|---------------|
A|---------------|
E|---------------|

Em                         A
I kome reći što ti je na duši,
A         Em   G       A
kad dušu nitko ne sluša.
A         Em            G   Am
I sad smo tu gdje nikad nismo bili,
Em                   G    D
nekad mislim da nije istina.

Em                         A
I kome reći što ti je na duši,
A         Em   G       A
kad dušu nitko ne sluša.
A         Em            G   Am
I sad smo tu gdje nikad nismo bili,
A          E    G      A
ti si mi jedina utjeha,
A    E   G
oprosti,
A        E           G
što imam tanke živce.

Am   Em   G
Oprosti,
G        Am           Em
ti si mi jedina utjeha…


Solo
Komentari
Još nema komentara