Parni Valjak

TANKI ŽIVCI

by: KarabajaX

Pronađi akord!

Ne znaš kako odsvirati neki od akorda pjesmi TANKI ŽIVCI? Upiši akord u tražilicu i saznaj!

Traženi akord će se prikazati ovdje

Od istog izvođača

Pregledano 9360 puta
Pregledano 16732 puta
Pregledano 27793 puta
Pregledano 18001 puta
Pregledano 112260 puta
Trebaš ritam za ovu pjesmu? Pronađi ga ovdje
Akordi/Tabovi:
TANKI ŽIVCI
Parni Valjak

Solo:
e|---------------------------------------------------------------|
B|-12-10------------------------12-10----------------------------|
G|-------12-12-11-9-11-9----9---------12-12-11-9-11-9------------|
D|-----------------------12---------------------------12-11------|
A|---------------------------------------------------------------|
E|---------------------------------------------------------------|

e|---------------------------------------------------------------|
B|-12-10---------------------------------------------------------|
G|------12-12-11-9-11-9----9---7/9--9/12\9-----------------------|
D|----------------------12-----------------12-12-11--------------|
A|---------------------------------------------------------------|
E|------------------------------------------------------3-2-3-5--|
Komentari
Još nema komentara