Toma Zdravković

Dotak'o sam dno života (v.2)

by: Haris

Pronađi akord!

Ne znaš kako odsvirati neki od akorda pjesmi Dotak'o sam dno života (v.2)? Upiši akord u tražilicu i saznaj!

Traženi akord će se prikazati ovdje

Od istog izvođača

Pregledano 16207 puta
Pregledano 2782 puta
Pregledano 45258 puta
Pregledano 7864 puta
Pregledano 2266 puta
Trebaš ritam za ovu pjesmu? Pronađi ga ovdje
Akordi/Tabovi:
CREDITS: yesiloveguitar - Lekcije Za Gitaru (youtube stranica: https://www.youtube.com/user/YesiloveguitarLzG) !
INTRO: (dva puta odsvirati)
e 8s10--10(x6)--10h.p.11----10--11h.p.13-p.10----10h.p.11--------
b -----------------------13------------------13----------13--11-
g --------------------------------------------------------------
d --------------------------------------------------------------
a --------------------------------------------------------------
E --------------------------------------------------------------
e 8.h.p.10 ---------------------|-------------------------------
b ---------11--10--8--10--11-10-|-10s11--11(x6)--11h.p.13--10---
g ------------------------------|-----------------------------12
d ------------------------------|-------------------------------
a ------------------------------|-------------------------------
E ------------------------------|-------------------------------
e -----------------------------------------------------|
b -----------------------------------------------------|
g 10--12h.p.13-p.10----10h.p.12------------------------|
d ------------------13----------13--12--10--12--13--12-|
a -----------------------------------------------------|
E -----------------------------------------------------|
OUTRO:
e ------------------|
b 13~--11~--10~-----|
g --------------12~-|
d ------------------|
a ------------------|
E ------------------|

h.p. = hammer on and pull off
p. = pull off
s. = slide
| = pause
~  = vibrato
Komentari
Još nema komentara