Haunted

99

by:

Pronađi akord!

Ne znaš kako odsvirati neki od akorda pjesmi 99? Upiši akord u tražilicu i saznaj!

Traženi akord će se prikazati ovdje

Od istog izvođača

99
Pregledano 1516 puta
Pregledano 1450 puta
Pregledano 1540 puta
Pregledano 1674 puta
Pregledano 1600 puta
Trebaš ritam za ovu pjesmu? Pronađi ga ovdje
Akordi/Tabovi:
TUNING: D G C F A D

. - palm mute / - slide up to
\ - slide down to   x – Staccato
h - hammer on p - pull off
, - slight palm mute () - ghost note, sustained note
" - tremolo note <> - Trill
ph - pinched harmonic * - see comment

Suffixes for bend
f - full bend h - half bend
q - quarter bend t - tap bend
^ - Hold bend r - release bend
~ - vibrato bend


Intro * indicates both guitars
-----------------------------------|
-----------------------------------|
-----------------------------------|
-*-*-*-*---------------------------| gtr 1
-2-8-5-2---------------------------|
-0-6-3-0--000-000-000-000-000-000--|
          ... ... ... ... ... ...

Riff 1 (play 4 times)
-------------------------|--1st and 3rd time---|-2nd and 4th----|
-------------------------|---------------------|-time-----------|
-------------------------|---------------------|----------------|
-------------------------|---------------------|----------------|
-------------------------|---------------------|---8-5-2--------|
-000-000-000-000-000-000-|-000-000-000--0-0----|-0-6-3-0--------|
... ... ... ... ... ...   ... ... ...  . .      . . .

Riff 2 (play 4 times)
-------------------------------|
-------------------------------|
-------------------------------|
------3-5-4--------------------|
-4----1/3\2-4--5-5-5-5-5-5-5---|
-2--2-------2--3-3-3-3-3-3-3---|
    .

Riff 1 x 1
Riff 2 x 1

Riff 3 (play 4 times)
-----------------------------------------------------------------|
-----------------------------------------------------------------|
-----------------------------------------------------------------|
-----------------------------------------------------------------|
---------4-3-----------4-3-------4-3-----------4-3---------------|
-000-000-2\1-0-000-000-2\1-0-000-2\1-0-000-000-2\1-0-000-0-6-3-0-|
... ...     . ... ...     . ...     . ... ...     . ...

Riff 4 (play 4 times)
--------------------------------------------------------------|
--------------------------------------------------------------|
-10-10-7-9-9-6-7---10101010101010-10-10-7-9-9-6-7--7----------|
-8--8--5-7-7-4-5---8-8-8-8-8-8-8--8--8--5-7-7-4-5--5----------|
-----------------5-----------------------------------2-2-2-2--|
-----------------3-----------------------------------0-0-0-0--|

Fill 1
----------------------------|
----------------------------|
----------------------------|
-10107-9--10107-9-----------|
-8-8-5-7--8-8-5-7----8-5-2--|
-------------------0-6-3-0--|
                   . . .

Riff 5 (play twice)
--------------------------------------------------------|
--------------------------------------------------------|
--------------------------------------------------------|
----------------------------------------------------3---|
---------------3--------------------------3-------3-----|
-0-0-3-6-3-0-3---3-0-3-6-3--0-0-3-6-3-0-3---3-0-3-------|

Riff 3 x 1
Riff 4 x 1
Fill 1 x 1
Riff 5 x 1

Riff 6 (play 4 times) * NOT TRANSCRIBED IN TIME OR SYNCOPATION
----------------------------|
----------------------------|
-8---7---11-----------------|
-6---5---9----10--9---------| gtr 1
--------------8---7---------|
----------------------------|

------------------|
------------------|
------------------|
------------------| gtr 2
------------------|
-0-0-000-000-000--|
. . ... ... ...

Riff 7 (play 4 times)
---------------------------------------------------------|
---------------------------------------------------------|
---------------------------------------------------------|
-6---6-------6-9-6---6--------------9-6-------8-7-6---9--|
---8---8-7-8-------8---8-7--8-7-8-7-7---8-7-8-------8-7--|
---------------------------------------------------------|
                                    .

Under solo:
Riff 3 x 1
Gtr 1’s Riff 6 x 1

Riff 7 x 1/2
Riff 4 x 1
Fill 1 x 1
Riff 5 x 1

Riff 8
---------------------------------------------------------------------|
---------------------------------------------------------------5-6~--|
---------------------------------------------------------------------|
--------5-8-5-----7-10-7---5-8-5-3-2----5-8-5---7-10-7---5-8-5-------|
---------------------------------------------------------------------|
-0--0-0--------0---------0------------0-------0--------0-------------|

End
----------------------------------------------------------------------|
----------------------------------------------------------------------|
----------------------------------------------------------------------|
--------5-8-5-----7-10-7---5-8-5--------------------------------------|
--------------------------------------------222-222-222-222-222-222-2-|
-0--0-0--------0---------0--------0-0-3-6-3-000-000-000-000-000-000-0-|
Komentari
Još nema komentara