Opća Opasnost

Tragovi

by: poprock95

Pronađi akord!

Ne znaš kako odsvirati neki od akorda pjesmi Tragovi? Upiši akord u tražilicu i saznaj!

Traženi akord će se prikazati ovdje

Od istog izvođača

Pregledano 9159 puta
Pregledano 6451 puta
Pregledano 45258 puta
Pregledano 4522 puta
Pregledano 4155 puta
Trebaš ritam za ovu pjesmu? Pronađi ga ovdje
Akordi/Tabovi:
C#5, C#5

C#5 D#5 E5 F#5 G#5 A5, H5 C#5

C#5 D#5 E5 D#5 C#5 A5, H5 C#5


Zovu me sjećanja u davnu noć pod zvijezdama

C#5 D#5 E5 F#5 G#5 A5
                     Jutro nas je pronašlo skrivene

C#5 H5 C#5 H5 A5 F#5
                    Tamo pokraj rijeke zagrljene

C#5 D#5 E5 D#5 C#5 A5
                     Obećane usne zaljubljene

C#5 H5 C#5 H5 A5                 H5             C#5
                Sve nek prolazi, al nećemo ja i ti

C#5 A5 H5      C#5     H5       C#5
Pra-ši-na vremena sada nas pokriva

C#5 D#5 E5 F#5 G#5 A5
                     Godine ko srne uplašene
                                       --xxx-------xxx--------
                                       --xxx-------xxx--------
                                       --xxx-------xxx--------
                                       --xxx-------xxx--------
                                       --xxx--6-5--xxx--------
                                       --xxx-------xxx--7-6---
                                       --xxx-------xxx--------

F#5
   Bježe neuhvatljive ko sjene
                      --xxx--------
                      --xxx--------
                      --xxx--------
                      --xxx--------
                      --xxx--6-5---
                      --xxx--------
                      --xxx--------

C#5 D#5 E5 D#5 C#5 A5                           C#5
                     Gledam rijeku, nosi uspomene

C#5 H5 C#5 H5 A5                    H5                C#5
                A gdje smo sada mi, gdje su naši tragovi

Prelaz 1 (C#)
-------------------
-------------------
-------------------
-------------------
----------2s1------
----2---------2----
--4---h4-----------

C#5 A5    E5      F#5 C#5  H5    A5   H5
Zameli ih snjegovi,   isprale ih kiše
C#5  A5    E5    F#5  C#5   H5   A5   H5
Pokriva ih zaborav, i ne postoje više

-------------------------------------------
-------4b5r4-------------------4b5r4-------
-------------4h6---------------------4h6---
--66--------------66--66--66---------------
--44--------------44--44--44---------------
-------------------------------------------

     H5       C#5    H5        C#5
Prašina vremena sada nas pokriva

C#5 H5 C#5 H5 A5
                Godine ko srne uplašene
                                  --xxx-------xxx--------
                                  --xxx-------xxx--------
                                  --xxx-------xxx--------
                                  --xxx-------xxx--------
                                  --xxx--6-5--xxx--------
                                  --xxx-------xxx--7-6---
                                  --xxx-------xxx--------

     Bježe neuhvatljive ko sjene
--xxx---------xxx----------xxx--------
--xxx---------xxx----------xxx--------
--xxx---------xxx----------xxx--------
--xxx---------xxx----------xxx--------
--xxx---------xxx----------xxx--6-5---
--xxx--4-3-4--xxx--4-3-----xxx--------
--xxx---------xxx----------xxx--------

C#5 H5 C#5 H5 A5                          C#5
                Gledam rijeku, nosi uspomene

C#5 H5 C#5 H5 A5                    H5                C#5
                A gdje smo sada mi, gdje su naši tragovi

Prelaz 2
------------------------
------------------------
------------------------
------------------------
--6-5----6-5----4----2--
------4------4----4-----
------------------------

C#5 A5    E5      F#5 C#5  H5    A5   H5
Zameli ih snjegovi,   isprale ih kiše
C#5  A5    E5    F#5  C#5   H5   A5
Pokriva ih zaborav, i ne postoje više

Solo (na klavijaturi)
e-------------------------------------------------------------------------------------------
h---s17----16-14-16b17-14-16-17-14-12---------------------------------12-14b16-12-14-12-14--
g-------------------------------------14-14s16-13-11------------13-14-----------------------
d-------16-------------------------------------------13------13-----------------------------
a---------------------------------------------------------14--------------------------------
e-------------------------------------------------------------------------------------------

e--------------------------------------------------------------------
h---16b17r16-14-17---14h16-14-17-----17-16-14-17--16b17r16-14-17-16--
g--------------------------------s13---------------------------------
d--------------------------------------------------------------------
a--------------------------------------------------------------------
e--------------------------------------------------------------------

e-------------------            -------------------
h---16b17r16-14-17--  3x        -------------------  3x
g-------------------            ---11b13r11--9-13--  (terca na gitari)
d-------------------            -------------------
a-------------------            -------------------
e-------------------            -------------------

Prelaz 3 (C#)
h--------------------
g--------------------
d-----------2s1------
a-----2---------2-4--
e---4---4h-----------

D#5 H5    F#5     G#5 D#5  C#5   H5    (Prelaz 1 iz D#)
Zameli ih snjegovi,   isprale ih kiše
D#5  H5    F#5   G#5  D#5   C#5  H5
Pokriva ih zaborav, i ne postoje više
             D#5   C#5  H5
Naši tragovi ne postoje više
             D#5   F#5  H5
Naši tragovi ne postoje više

(Prelaz 3 iz D#)
Komentari

poprock95 kaže:

Akordi/Tabovi:
Evo, uređeni početak sola koji je gore napreskokce:

e---------------------------------------------------------
h---s17----16-14-16b17-14-16-17-14-12---------------------
g-------------------------------------14-14s16-13-11------
d-------16-------------------------------------------13---
a---------------------------------------------------------
e---------------------------------------------------------

e-------------------------------------
h---------------12-14b16-12-14-12-14--
g---------13-14-----------------------
d------13-----------------------------
a---14--------------------------------
e-------------------------------------

02-02-2014 15:37