Dalmatino

Zoven se jugo

by: poprock95

Pronađi akord!

Ne znaš kako odsvirati neki od akorda pjesmi Zoven se jugo? Upiši akord u tražilicu i saznaj!

Traženi akord će se prikazati ovdje

Od istog izvođača

Pregledano 31330 puta
Pregledano 2402 puta
Pregledano 21595 puta
Pregledano 22168 puta
Pregledano 7643 puta
Trebaš ritam za ovu pjesmu? Pronađi ga ovdje
Akordi/Tabovi:
C# G#maj F# 4x

      C#                                  Bm
Negdi između neba i mora di se kupa misec blid
    C#                                     Fm
ova beskrajna vodena pustoš me izbacila na hrid
      G#                            D#
Ispod zidina tvojega srca me dovela noć
     D#m                              Bm
pred vrata na koja san kuca nije lako doć
       C#                                 Bm
Ja san vitar i zoven se jugo, predajen ti se
C#                                Fm
udahni me, ništa ti drugo ne preostaje
       G#                              D#
Ka dvi stine u moru samoće smo pali do dna
   D#m              (F#)         G#
al srića nas ovi put oće, a ti si mi sudbina
C#                  G#maj          F#
Pričan ti, pričan i pažljivo biran riči
   C#                  G#maj         F#
da pamet ne izgubin, a dušu ti dam na dar
           C#               G#/C
Sve zlatne kadele s neba će past
      F#            C#
da ti okitin ruke i vrat
                    G#               F#
Ispod livoga ramena oganj od plamena čuvan
      Bm     G#     C#
i ovi dan ti poklanjam

Solo:

e --------------------------------------------------
h ---18-18-18-18-18b19-18-16-16-16-16-16b18-16-14---
g --------------------------------------------------
d --------------------------------------------------
a --------------------------------------------------
e --------------------------------------------------

e -------------------------------------------------------------------------
h ------------9-6---6-------18-18-18-18-18b19-18-16-16-16-16-16b18-16-14---
g ---6h8-8b10-----8-----6--------------------------------------------------
d --------------------8----------------------------------------------------
a -------------------------------------------------------------------------
e -------------------------------------------------------------------------

e ---------------------17---
h ---19-19-19-19-17s15------
g --------------------------
d --------------------------
a --------------------------
e --------------------------

       D                                  Hm
Ja san vitar i zoven se jugo, predajen ti se
D                                 F#m
udahni me, ništa ti drugo ne preostaje
       A                               E
Ka dvi stine u moru samoće smo pali do dna
   Em               (G)           A
al srića nas ovi put oće, a ti si mi sudbina
D                   Amaj           G
Pričan ti, pričan i pažljivo biran riči
   D                   Amaj           G
da pamet ne izgubin, a dušu ti dam na dar
           D                A/C#
Sve zlatne kadele s neba će past
      G             D
da ti okitin ruke i vrat
                    A                G
Ispod livoga ramena oganj od plamena čuvan
      Hm     A   D
i ovi dan ti poklanjam

e ------------------------------------------------------------
h ---19-19-19-19-19b20-19-17-17-17-17-17b19-17-15-------------
g -------------------------------------------------s14-12-11--
d ------------------------------------------------------------
a ------------------------------------------------------------
e ------------------------------------------------------------

e ------2----5----3--2---
h -----3----5----3-3-3---
g ----2----6----4----2---
d ---0----7----5-----0---
a -----------------------
e -----------------------


G#maj 446544, G#/C x3111x, Amaj 00220, A/C# 042220
Komentari
Još nema komentara