Oliver Dragojević

A sad adio- točna verzija sa tabovima

by: filip123

Pronađi akord!

Ne znaš kako odsvirati neki od akorda pjesmi A sad adio- točna verzija sa tabovima? Upiši akord u tražilicu i saznaj!

Traženi akord će se prikazati ovdje

Od istog izvođača

Pregledano 751 puta
Pregledano 36532 puta
Pregledano 5268 puta
Pregledano 14070 puta
Pregledano 18724 puta
Trebaš ritam za ovu pjesmu? Pronađi ga ovdje
Akordi/Tabovi:
[left]E--5--4--5------5--4--5------5--6--5--3------3--3------3------3------3------3--5--3--------------
B-------------6-------------6-----------------6----------6------5------6------5-------------6--5--3---
G-----------------------------------------------------------------------------------------------------------
D-----------------------------------------------------------------------------------------------------------
A-----------------------------------------------------------------------------------------------------------
E-----------------------------------------------------------------------------------------------------------


E--10-9-10----10-9-10-----10-11-10-8--------------------------------------10-------------------
B-------------11-----------11----------------11-10--10-11-10-8----8------------10-8----8------
G-----------------------------------------------------------------------10--10-9------------10---9-7-
D-----------------------------------------------------------------------------------------------------------
A-----------------------------------------------------------------------------------------------------------
E-----------------------------------------------------------------------------------------------------------

Dm
JEDNOM ODLETEĆE PTICE
                                                    A
ULICE NAŠE OSTAĆE BEZ SUNCA

ČOVEK ISPRATIĆE ŽENU
                                                      Dm
DUGO NA VETRU JOŠ STAJAĆE SAM
   F                                                         Dm
JEDNOM ODLAZI SVAKO PUTEM SVOG ŽIVOTA
                                          A                                Dm     
NA RASTANKU SRCE KAŽE, JA ĆU SE VRATITI
                 B                            F
   A SAD ADIO, A SAD ADIO
                     Gm                    Dm   
   I 'KO ZNA GDE I 'KO ZNA KAD
           
                   Gm                   Dm
   A SAD ADIO, A SAD ADIO
                    A                   Dm              A Dm
   I 'KO ZNA GDE I 'KO ZNA KAD
[/left]
Komentari

solomun kaže:

Akordi/Tabovi:
Oliver Dragojević-A sad adio
Solomun 16.10.13

Dm
Jednom otleteće ptice
           E7         A                     
Ulice naše ostaće bez sunca
A7
Čovek ispratiće ženu
                          Dm       
Dugo na vetru jos stajaće sam
F
Jednom odlazi svako
             Dm             
Putem svog života
                      A7               
Na rastanku srce samo kaže
              Dm
Ja ću se vratiti

       Bb   (C)   F
A sad adio a sad adio
D7       Gm           Dm     
I ko zna gde i ko zna kad
       Gm         Dm
A sad adio a sad adio
         A7           Dm
I ko zna gde i ko zna kad
                                         
:scooter

16-10-2013 12:12

filip123 kaže:

19-10-2013 13:04