Dubioza kolektiv

Kažu

by: cooler312

Pronađi akord!

Ne znaš kako odsvirati neki od akorda pjesmi Kažu? Upiši akord u tražilicu i saznaj!

Traženi akord će se prikazati ovdje

Od istog izvođača

Pregledano 17568 puta
Pregledano 10876 puta
Pregledano 6198 puta
Pregledano 22720 puta
Pregledano 5150 puta
Trebaš ritam za ovu pjesmu? Pronađi ga ovdje
Akordi/Tabovi:
Gm
Kazu da je Bosna samo
drzava za rodaka
i da smo na vrhu liste
D
po odlivu "mozaka"

Gm
Kazu opet Iran pravi
nuklearne bombe
zvaka cisti zube
D
al  izvaljuje plombe

Gm
Kazu sto je babi milo
to joj se i snilo
kazu na Jamajci gandzu
D
prodaju na kilo

Gm
Kazu nemoj vode vruc,
kod nas propuh ubija
igrali smo dobro ali
D
zajeb o nas sudija

Gm
Kazu da je alkohol
zdraviji od trave
kazu ako nemas stav
D
odma  ti ga stave

Gm
Kazu da su plavke gluplje
nego crnke i brinete
i da okus bude bolji
D
s kasikom Vegete

Gm
Kazu nece nikad prestat
glave da nam pune
Sve dok je ovaca
D
nece falit  vune

Gm
Spale su nam gace,
Cm
zagrizli smo udice
Gm
Glave nam u pijesku,
D
nezasticene guzice


     Gm
Kazu da je smak svijeta
Cm
relativno blizu
Gm
i da su nas banke
D
uvukle u krizu
Gm
Mene tjeraju na izbore
Cm
svake dvije godine,
Gm
a ja glasam za kafanu
D
i marihuanu




Gm             Cm
Od Vatikana do Irana
Gm                     D
Kao da smo juce pali s grana
Gm             Cm
Od Vatikana do Irana
Gm                  D
majmunu je dovoljna banana

Od Vatikana do Irana
Kao da smo juce pali s grana
Od Vatikana do Irana
ilegalna je marihuana.


4X

E||--10------------9--10--9--|--10--9---------------------------|----------------------------|-------------------------------------||
B||------------------------------|---------11--10--11--10--------|--11---L--10--11--10--|--11--10--------------------------||
G||------------------------------|------------------------------12---|----------------------------|----------12--11--12--11--------||
D||------------------------------|------------------------------------|----------------------------|------------------------------12----||
A||------------------------------|-------------------------------------|----------------------------|-------------------------------------||
E||------------------------------|------------------------------------|----------------------------|--------------------------------------||


2X


E||--10----12----13----12----|--10----12--13-----13--12----|--10----12----13----12----|--10---------------------------||
B||--------------------------------|------------------------------------|---------------------------------|--------13----11--10--------||
G||--------------------------------|------------------------------------|--------------------------------|--------------------------12----||
D||--------------------------------|------------------------------------|--------------------------------|---------------------------------||
A||--------------------------------|------------------------------------|---------------------------------|--------------------------------||
E||--------------------------------|------------------------------------|---------------------------------|--------------------------------||







Kazu da malu djecu
donosi nam roda
i da jedino je zdrava
flasirana voda

Kazu da uz pjesmu
efikasnije se trlja
cudotvorni sapun protiv
tvrdokornih mrlja

Kazu nece nikad prestat
glave da nam pune
Sve dok je ovaca
nece falit  vune

Spale su nam gace,
zagrizli smo udice
Glave nam u pijesku,
nezasticene guzice



Kazu da je smak svijeta
relativno blizu
i da su nas banke
uvukle u krizu

Mene tjeraju na izbore
svake dvije godine
a ja glasam za kafanu
i marihuanu




Od Vatikana do Irana
Kao da smo juce pali s grana
Od Vatikana do Irana
majmunu je dovoljna banana

Od Vatikana do Irana
Kao da smo juce pali s grana
Od Vatikana do Irana
ilegalna je marihuana
Komentari
Još nema komentara