Thompson

Marko Perković Thompson - Bojna Čavoglave/Verzija 3/

by: tzlaja

Pronađi akord!

Ne znaš kako odsvirati neki od akorda pjesmi Marko Perković Thompson - Bojna Čavoglave/Verzija 3/? Upiši akord u tražilicu i saznaj!

Traženi akord će se prikazati ovdje

Od istog izvođača

Pregledano 31440 puta
Pregledano 28868 puta
Pregledano 3785 puta
Pregledano 36743 puta
Pregledano 89964 puta
Trebaš ritam za ovu pjesmu? Pronađi ga ovdje
Akordi/Tabovi:
Thompson – Bojna Čavoglave
- nova verzija


Uvod

Am      C D
Am      C D
Am      C D
Am      C D


Strofa/ Refren

Am                                      C
U Zagori na izvoru rijeke Čikole,
Dm            Am          G             Am    H C
Stala braća da obrane naše domove.
Dm            Am          G             Am    H C
Stala braća da obrane naše domove.

Am                                                C
Stoji Hrvat do Hrvata, mi smo braća svi,
Dm            Am          G             Am    H C
Nećete u Čavoglave dok smo živi mi!
Dm            Am          G             Am    H C
Nećete u Čavoglave dok smo živi mi!

Am                                              C
Tuče tomson, kalašnjikov a i zbrojevku,
Dm            Am          G                 Am    H C
Baci bombu, goni bandu preko izvora!
Dm            Am          G                 Am    H C
Baci bombu, goni bandu preko izvora!

Am                                                          C
Korak naprijed, puška gotov, svi uz pjesmu svi,
Dm            Am          G                      Am    H C
Za dom braćo, za slobodu, borimo se mi.
Dm            Am          G                     Am    H C
Za dom braćo, za slobodu, borimo se mi.

/Mala stanka/“pucanje“/

Am                                              C
Čujte srpski dobrovoljci bando četnici
Dm            Am          G        Am    H C
Stići će vas naša ruka i u Srbiji!
Dm            Am          G        Am    H C
Stići će vas naša ruka i u Srbiji!

Am                                                    C
Stići će vas Božja pravda to već svatko zna
Dm            Am          G             Am    H C
Sudit će vam bojovnici iz Čavoglava!
Dm            Am          G             Am    H C
Sudit će vam bojovnici iz Čavoglava!

Am                                           C
Slušajte sad poruku od Svetog Ilije:
Dm            Am          G            Am    H C
Nećete u Čavoglave, niste ni prije!
Dm            Am          G            Am    H C
Nećete u Čavoglave, niste ni prije!

Solo:

e---------------------------------------------------------------
B---------------------------------------------------------------
G-------9-9--10-10---------------7-7---9-7-----7----------   x4
D-7-7----------------10-10--9-9-------------10---10-9-7--
A---------------------------------------------------------------
E---------------------------------------------------------------

e-12--------12--------12------13--------13--------13------10------10-------10---
B----13-10----13-10----13------13-10----13-10----13------12-8----12-8----12-
G----------------------------------------------------------------------------------------
D----------------------------------------------------------------------------------------
A----------------------------------------------------------------------------------------
E----------------------------------------------------------------------------------------

e------------8-10-12-13-
B-8-10-12----------------
G--------------------------   x2     
D--------------------------
A--------------------------
E--------------------------

Am                C D
Am                C D

Am                                         C
Oj Hrvati, braćo mila iz Čavoglava,
Dm            Am          G             Am    C D
Hrvatska vam zaboravit neće nikada!
Dm            Am          G             Am   
Hrvatska vam zaboravit neće nikada!
G              Am
Neće nikada!
G             Am
Neće nikada!
G              Am
Neće nikada!

Kraj

Am                   Am C D E(visoki) D Am G     Am
Komentari

Guitar360 kaže:

Dobar Vam dan. Neću trpiti glupa prepucavanja po svom siteu. Ako ne možete živjeti u miru, onda pišite saboru/parlamentu da želite ratovati. Ali nemojte o svojim takvim tendencijama pisati u komentarima. Pobrisat cu vam sve takve komentare zato što mogu da ih ne gledaju korisnici. Mi nismo smrdljivi youtube. Hvala Vam i Bog vam dao svima zdravlja, sreće i sedmero djece. Svirajte gitaru, veselite se, nađite si curu/dečka i lijepo se utoplite skupa. Puno bolji prijedlog nego pisanje bedastih komentara po siteu. Sretno.

25-02-2013 15:36

zdeslav kaže:

Evo covera live verzije kada je još KEX bio u bendu, točnije cover verzija koncerta na trgu bana '09 https://www.youtube.com/watch?vhs=1&v=fRknHlxnbi4&feature=player_detailpage#!

15-04-2013 20:13