Plavi Orkestar

Sedam

by: Marko Lukša

Pronađi akord!

Ne znaš kako odsvirati neki od akorda pjesmi Sedam? Upiši akord u tražilicu i saznaj!

Traženi akord će se prikazati ovdje

Od istog izvođača

Pregledano 6182 puta
Pregledano 9233 puta
Pregledano 8082 puta
Pregledano 815 puta
Pregledano 2541 puta
Trebaš ritam za ovu pjesmu? Pronađi ga ovdje
Akordi/Tabovi:
Uvod: 2x

e: -------------------------------------------------------------
H: -9-7-9-10-9--9-7----7-7-----9-7-9-10-9--9-7----7-9-7---------
G: -----------------9------9-------------------9--------9------
D: -------------------------------------------------------------
A: -------------------------------------------------------------
E: -------------------------------------------------------------

e: -------------------------------------------------------------
H: -9-7-9-10-9--9-7----7-7-----9-7-9-10-9-10/12-9-7----7--------
G: ------------------9------9------------------------9--------
D: -------------------------------------------------------------
A: -------------------------------------------------------------
E: -------------------------------------------------------------


E          C#m         A        H
Svanuo je divan suncan dan, kao nekad
E            C#m          A       H
Vreli avgust, silazim u grad, kao nekad
     C#m       F#m              H
Ali moje lice nije isto, znam, kao prije
        C#m          F#m             H
Na povrsini stakla, kad ga ugledam  o o ooo

Prvi tramvaj, zeljeznicki bar, kao nekad
Sarajevo, Ploce, pa na Hvar, kao nekad
Momci i djevojke na more putuju, kao prije
I sve je isto samo tebe nema tu o o oooo

Refren:
E           C#m
Sedam, dana sedam
A           H            E          C#m
Sedam dana prodje mi k'o jedan, kao jedan
A            H
Al' bez tebe vjecnost traje
E           C#m
Sedam, dana sedam
A           H            E          C#m
Sedam dana prodje mi k'o jedan, kao jedan
A          H            E Esus4 Esus4 Esus4 E
cini mi se ljubav da je to


Svanuo je divan suncan dan, kao nekad
Vreli avgust, silazim u grad, kao nekad
Ali moje lice nije isto, znam, kao prije
Na povrsini stakla, kad ga ugledam o o oooo

Refren:
E           C#m
Sedam, dana sedam
A           H            E          C#m
Sedam dana prodje mi k'o jedan, kao jedan
A            H
Al' bez tebe vjecnost traje
E           C#m
Sedam, dana sedam
A           H            E          C#m
Sedam dana prodje mi k'o jedan, kao jedan
A          H            E Esus4 Esus4 Esus4 E
cini mi se ljubav da je to

A         G#7      C#m
Hej, moji dani buduci,
           H          E Esus4 Esus4 Esus4 E
uvijek su dio proslosti
A         G#7         C#m
Hej, moja prva ljubav si,
             H          E Esus4 Esus4 Esus4 E
znam da ces zadnja ostati

Solo: E C#m A H 2x
         C#m         F#m          H
Momci i djevojke na more putuju, kao prije
          C#m       F#m          H
I sve je isto samo tebe nema tu o o oooo
Download: Sedam
Veličina: kb, Preuzeto 361 puta
Komentari
Još nema komentara