Adele

Someone Like You

by:

Pronađi akord!

Ne znaš kako odsvirati neki od akorda pjesmi Someone Like You? Upiši akord u tražilicu i saznaj!

Traženi akord će se prikazati ovdje

Od istog izvođača

Pregledano 12232 puta
Pregledano 22726 puta
Pregledano 1891 puta
Pregledano 2601 puta
Pregledano 2124 puta
Trebaš ritam za ovu pjesmu? Pronađi ga ovdje
Akordi/Tabovi:
CAPO 4

Intro:

    F                        Am
E|---------------------------------------------------------------------------|
B|------1-------1-------1-------1-------1-------1-------1-------1------------|
G|----2---2---2---2---2---2---2---2---2---2---2---2---2---2---2---2----------|
D|--3-------3-------3-------3-------2-------2-------2-------2----------------|
A|---------------------------------------------------------------------------|
E|---------------------------------------------------------------------------|


    D                               B      Start couplet:  I
E|---------------------------------------------------------------------------|
B|------3-------3-------3-------3-------3-------3-------3-------3------------|
G|----2---2---2---2---2---2---2---2---3---3---3---3---3---3---3---3----------|
D|--0-------0-------0-------0-------3-------3-------3-------3----------------|
A|---------------------------------------------------------------------------|
E|---------------------------------------------------------------------------|


        heard               that you're     settled down,   That you
E|---------------------------------------------------------------------------|
B|------1-------1-------1-------1-------1-------1-------1-------1------------|
G|----2---2---2---2---2---2---2---2---2---2---2---2---2---2---2---2----------|
D|--3-------3-------3-------3-------2-------2-------2-------2----------------|
A|---------------------------------------------------------------------------|
E|---------------------------------------------------------------------------|
            found a girl    and you're      married now,
E|---------------------------------------------------------------------------|
B|------3-------3-------3-------3-------3-------3-------3-------3------------|
G|----2---2---2---2---2---2---2---2---3---3---3---3---3---3---3---3----------|
D|--0-------0-------0-------0-------3-------3-------3-------3----------------|
A|---------------------------------------------------------------------------|
E|---------------------------------------------------------------------------|

       I       heard     that your dreams came true,       Guess she
E|---------------------------------------------------------------------------|
B|------1-------1-------1-------1-------1-------1-------1-------1------------|
G|----2---2---2---2---2---2---2---2---2---2---2---2---2---2---2---2----------|
D|--3-------3-------3-------3-------2-------2-------2-------2----------------|
A|---------------------------------------------------------------------------|
E|---------------------------------------------------------------------------|

    gave you things     I didnt't give to you,                Old
E|---------------------------------------------------------------------------|
B|------3-------3-------3-------3-------3-------3-------3-------3------------|
G|----2---2---2---2---2---2---2---2---3---3---3---3---3---3---3---3----------|
D|--0-------0-------0-------0-------3-------3-------3-------3----------------|
A|---------------------------------------------------------------------------|
E|---------------------------------------------------------------------------|

            friend,     why are you so shy?               It ain't
E|---------------------------------------------------------------------------|
B|------1-------1-------1-------1-------1-------1-------1-------1------------|
G|----2---2---2---2---2---2---2---2---2---2---2---2---2---2---2---2----------|
D|--3-------3-------3-------3-------2-------2-------2-------2----------------|
A|---------------------------------------------------------------------------|
E|---------------------------------------------------------------------------|

    you to hold back          or hide         from the light
E|---------------------------------------------------------------------------|
B|------3-------3-------3-------3-------3-------3-------3-------3------------|
G|----2---2---2---2---2---2---2---2---3---3---3---3---3---3---3---3----------|
D|--0-------0-------0-------0-------3-------3-------3-------3----------------|
A|---------------------------------------------------------------------------|
E|---------------------------------------------------------------------------|

Pre-chorus:

  I hate to turn...  blue uninvited but I couldn't.. I couldn't fight it...
E|---------------------------------------------------------------------------|
B|------1-------1-------3-------3-------3-------3-------3-------3------------|
G|----2---2---2---2---2---2---2---2---3---3---3---3---3---3---3---3----------|
D|--2-------2-------0-------0-------3-------3-------3-------3----------------|
A|---------------------------------------------------------------------------|
E|---------------------------------------------------------------------------|


I'd hoped you'd...  that you'd be.. me it isn't over

E|---------------------------------------------------------------------------|
B|------1-------1-------3-------3-------3-------3-------3-------3------------|
G|----2---2---2---2---2---2---2---2---3---3---3---3---3---3---3---3----------|
D|--2-------2-------0-------0-------3-------3-------3-------3----------------|
A|---------------------------------------------------------------------------|
E|---------------------------------------------------------------------------|



Chorus:
   Nevermind I'll   find someone like you
E|---------------------------------------------------------------------------|
B|------1-------1-------1-------1-------2-------2-------3-------3------------|
G|----2---2---2---2---2---2---2---2---3---3---3---3---3---3---3---3----------|
D|--3-------3-------2-------2-------0-------0-------3-------3----------------|
A|---------------------------------------------------------------------------|
E|---------------------------------------------------------------------------|

   nothing but the best for         you             too    don't for-
E|---------------------------------------------------------------------------|
B|------1-------1-------1-------1-------2-------2-------3-------3------------|
G|----2---2---2---2---2---2---2---2---3---3---3---3---3---3---3---3----------|
D|--3-------3-------2-------2-------0-------0-------3-------3----------------|
A|---------------------------------------------------------------------------|
E|---------------------------------------------------------------------------|

    get me    I     beg        I re-member you     said   sometimes it

E|---------------------------------------------------------------------------|
B|------1-------1-------1-------1-------2-------2-------3-------3------------|
G|----2---2---2---2---2---2---2---2---3---3---3---3---3---3---3---3----------|
D|--3-------3-------2-------2-------0-------0-------3-------3----------------|
A|---------------------------------------------------------------------------|
E|---------------------------------------------------------------------------|

    lasts in love but sometimes it hurts instead

E|---------------------------------------------------------------------------|
B|------1-------1-------1-------1-------2-------2-------3-------3------------|
G|----2---2---2---2---2---2---2---2---3---3---3---3---3---3---3---3----------|
D|--3-------3-------2-------2-------0-------0-------3-------3----------------|
A|---------------------------------------------------------------------------|
E|---------------------------------------------------------------------------|

Verse 2 is exactly the same as the first but with these lyrics:

You know, how the
time flies only
yesterday was the
time of our lives we were
born and raised in a
summer haze bound by
the surprise
of our glory days

(Pre-chorus)
(Chorus)
Bridge:
E|---------------------------------------------------------------------------|
B|------1-------1------1-------1-------3-------3-------3-------3-------------|
G|----2---2---2---2--2---2---2---2---2---2---2---2---2---2---2---2-----------|
D|--2-------2------2-------2-------0-------0-------0-------0-----------------|
G|---------------------------------------------------------------------------|
E|---------------------------------------------------------------------------|

E|---------------------------------------------------------------------------|
B|----3-------3-------3-------3-------3-------3-------5-------5--------------|
G|--2---2---2---2---2---2---2---2---3---3---3---3---5---5---5---5------------|
D|0-------0-------0-------0-------5-------5-------7-------7-------7----------|
G|---------------------------------------------------------------------------|
E|---------------------------------------------------------------------------|

E|---------------------------------------------------------------------------|
B|------3-------3-------3-------3--------------------------------------------|
G|----3---3---3---3---3---3---3---3------------------------------------------|
D|--3-------3-------3-------3------------------------------------------------|
G|---------------------------------------------------------------------------|
E|---------------------------------------------------------------------------|

And then for the next (3rd) chorus, pluck the strings you use in the chorus once:
    Never mind I'll find, someone like you                             I wish
E|---------------------------------------------------------------------------|
B|--1---------------1------------------3-----------------3-------------------|
G|--2---------------2------------------2-----------------3-------------------|
D|--3---------------2------------------0-----------------3-------------------|
G|---------------------------------------------------------------------------|
E|---------------------------------------------------------------------------|
    nothing but the best    for        you               too        Don't for-

E|---------------------------------------------------------------------------|
B|--1---------------1------------------3-----------------3-------------------|
G|--2---------------2------------------2-----------------3-------------------|
D|--3---------------2------------------0-----------------3-------------------|
G|---------------------------------------------------------------------------|
E|---------------------------------------------------------------------------|

Then start tabbing again, but slow:


    get me              I beg                  I   re-
E|---------------------------------------------------------------------------|
B|-------------1-----------------------1-------------------------------------|
G|--------2---------2-----------2--------------2-----------------------------|
D|--3---------------------2--------------------------------------------------|
G|---------------------------------------------------------------------------|
E|---------------------------------------------------------------------------|


    member      you       said          sometimes it
E|---------------------------------------------------------------------------|
B|-------------3-----------------------3-------------------------------------|
G|--------2---------2-----------3--------------3-----------------------------|
D|--0---------------------3--------------------------------------------------|
G|---------------------------------------------------------------------------|
E|---------------------------------------------------------------------------|

    lasts in love but    sometimes it hurt   in-
E|---------------------------------------------------------------------------|
B|-------------1-----------------------1-------------------------------------|
G|--------2---------2-----------2--------------2-----------------------------|
D|--3---------------------2--------------------------------------------------|
G|---------------------------------------------------------------------------|
E|---------------------------------------------------------------------------|
    stead
E|---------------------------------------------------------------------------|
B|-------------3-----------------------3-------------------------------------|
G|--------2---------2-----------3--------------3-----------------------------|
D|--0---------------------3--------------------------------------------------|
G|---------------------------------------------------------------------------|
E|---------------------------------------------------------------------------|
Komentari
Još nema komentara