Divlje Jagode

Krivo Je More 2003 solo

by: rocker587

Pronađi akord!

Ne znaš kako odsvirati neki od akorda pjesmi Krivo Je More 2003 solo? Upiši akord u tražilicu i saznaj!

Traženi akord će se prikazati ovdje

Od istog izvođača

Pregledano 30523 puta
Pregledano 6776 puta
Pregledano 8038 puta
Pregledano 10750 puta
Pregledano 6992 puta
Trebaš ritam za ovu pjesmu? Pronađi ga ovdje
Akordi/Tabovi:
1.solo
E------------------------------------------------------------
B------------------------------------------------------------
G-----4-4h5p4-----------------2s4-5-h7p4-h5p4p2---2----------
D-7b9--------7-5-4-5--4h5p4---------------------5----4h5p4---
A--------------------------7-------------------------------5-
E------------------------------------------------------------

E---------------------------7-----------7h8h10p7h8-8-10-7---
B-4s7h8h10p8p7--------4s7-8--7h8--7h8h10--------------------
G-------------8---------------------------------------------
D--------------9-8-7----------------------------------------
A-----------------------------------------------------------
E-------1---------------------------------------------------

E-7h8p7---------------------------------------------------
B-------10------------------------------------------------
G---------7-7-7-7s9-9-9-9s11-11-11-11s12-12s14-12---------
D---------------------------------------------------------
A---------------------------------------------------------
E---------------------------------------------------------



2. solo:
e ------7-7h8p7-----------------------------------------------------------------------
H 10b12----------10-8-7-8---7h8p7----10h12p10h13-13-15p12-13p12p10-12p10s8-10---7h8p7--
G -------------------------------9--------------------------------------------------7-
D ------------------------------------------------------------------------------------
A ------------------------------------------------------------------------------------
E ------------------------------------------------------------------------------------
   
  *cijelo vrijeme držati bend 10b12*
  *i hammer on ide desnom rukom*
e ----------------------------------------------------7h8h10-7h8-10-7--7h8p7-----
H --*10b12*-h15p10--h17p10--h19p10---10p8p7h8--7h8h10------------------------10--
G -------------------------------------------------------------------------------
D -------------------------------------------------------------------------------
A -------------------------------------------------------------------------------
E -------------------------------------------------------------------------------

         ********(ovaj dio ide brzo)*************************
e ----------------------------------------------12h14h15s17b19-17b19-17b19-17b19-
H -------------------------------------12h13h15----------------------------------
G ----------------------------11h12h14-------------------------------------------
D ----------------------12h14----------------------------------------------------
A --------9-10-12h14h15----------------------------------------------------------
E --10-12------------------------------------------------------------------------

e --19-17h19p17p15-14-15--14-15-12---17s19-20~--20-20-19--20p19p17-15-17-15h17-17~-
H ---------------------------------------------------------------------------------
G ---------------------------------------------------------------------------------
D ---------------------------------------------------------------------------------
A ---------------------------------------------------------------------------------
E ---------------------------------------------------------------------------------

e --19-20-19~-15s17--15h17p14h15-14-15--12-----17s19-20-20-19-20p19p17--------14-15-17s0--
H ---------------------------------------------------------------------15-17--------------
G ----------------------------------------------------------------------------------------
D ----------------------------------------------------------------------------------------
A ----------------------------------------------------------------------------------------
E ----------------------------------------------------------------------------------------

završetak na violončelu, al može i gitara, usto malo se igrajte sa volume potenciometrom :D
e -----------------------------
H -----------------------------
G -----------------------------
D --7~-5~----------------------
A --------9~-7~-5~-------------
E -----------------8~-7~-5~-3~-
Komentari

rocker587 kaže:

Uočio sam grešku u prvom redu prvog sola, dakle ovaj prvi odlomak bi trebao ići:
E------------------------------------------------------------------
B------------------------------------------------------------------
G-----4-4h5p4-----------------2s4-5-h7p4-h5p4p2--4p2p0h2-----------
D-7b9--------7-5-4-5--4h5p4--------------------------------4h5p4---
A--------------------------7-------------------------------------5-
E------------------------------------------------------------------

03-03-2012 23:50

rocker587 kaže:

pošto se dobro ne vidi ovdje, kopirajte u notepad i vidjet ćete onda onako kako bi trebalo :D

03-03-2012 23:51