Puddle Of Mudd

She Hates Me

by: Guitar360

Pronađi akord!

Ne znaš kako odsvirati neki od akorda pjesmi She Hates Me? Upiši akord u tražilicu i saznaj!

Traženi akord će se prikazati ovdje

Od istog izvođača

Pregledano 2118 puta
Pregledano 2015 puta
Pregledano 2837 puta
Pregledano 1951 puta
Pregledano 1815 puta
Trebaš ritam za ovu pjesmu? Pronađi ga ovdje
Akordi/Tabovi:
Puddle of Mudd - She Hates Me

pm. = palm mute

INTRO / VERSE:
e|-------------------------------|
B|------------2----------------4-|
G|----1-------2--------3-------4-|
D|----2-------2--------4-------4-|
A|----2----0-----0-----4----2----|
E|-0-----0----------2-----2------|

LATER VERSE:
e|---------------------------------|
B|---------------------------------|
G|---------------------------------|
D|-------------2---------------4---|
A|-----2---0-0-0-0-----4---2-2-2-2-|
E|-0-0-0-0---------2-2-2-2---------|
pm . .   . . .   . . .   . . .   .

CHORUS:
e|---------------------------------|
B|---------------------------------|
G|---------------------------------|
D|---------2-2-2-2---------4-4-4-4-|
A|-2-2-2-2-0-0-0-0-4-4-4-4-2-2-2-2-|
E|-0-0-0-0---------2-2-2-2---------|
Komentari

chaleta kaže:

Evo jedna laksa varijanta:
probajte...

Preporucio bih intro da svirate ovako:

e|--------------------------------------------------------------------|
B|--------------------------------------------------------------------|
G|-------2-------------4----------------------------------------------|
D|--2----2-----4-------4----------------------------------------------|
A|--2--0-------4-2-2-2------------------------------------------------|
D|0---0----0-2--------------------------------------------------------|
i tako sve do onog djela gdje pocinje ovako

e|--------------------------------------------------------------------|
B|--------------------------------------------------------------------|
G|--------------------------------------------------------------------|
D|-------2-2-2-----4-4-4----------------------------------------------|
A|-2-2-2-0-0-0-4-4-2-2-2----------------------------------------------|
D|-0-0-0-------2-2----------------------------------------------------|

i onda na kraju svirate akorde... G C Am D7 (ili D)

31-12-2008 14:12