Divlje Jagode

Moj dilbere-ISPRAVNA VERZIJA-

by:

Pronađi akord!

Ne znaš kako odsvirati neki od akorda pjesmi Moj dilbere-ISPRAVNA VERZIJA-? Upiši akord u tražilicu i saznaj!

Traženi akord će se prikazati ovdje

Od istog izvođača

Pregledano 11409 puta
Pregledano 5592 puta
Pregledano 5867 puta
Pregledano 19758 puta
Pregledano 58769 puta
Trebaš ritam za ovu pjesmu? Pronađi ga ovdje
Akordi/Tabovi:
UVOD: A5 G5 A5
      A5 G5

A5     G5  A5 3x
Moj Dilbere,
D5    A5 G5  uvod
kud se šećeš
A5  G5 A5  2x
Aj što i mene
B5   G5  uvod
ne povedeš.
A5  G5 A5  2x
Aj što i mene
B5   G5  uvod
ne povedes.

Povedi me
u čaršiju
Aj pa me prodaj
pazardžiji.
Aj pa me prodaj
pazardžiji.

Solo:
distorzija na pola, palm mute

   A                                           B         G A
e|-----------------------------------------------------------
H|-5-6-5-------------------------5-6-5-----------------------
G|-------7-6-7-6---------------6-------7-6-7-6------7-6------
D|---------------8-7-7-7-8-5-7-----------------8-7-8---8-5-7-
A|-----------------------------------------------------------
E|-----------------------------------------------------------

full distorzija, bez palm mute-a
   A
e|--------------------------------------
H|-5-6-5_6_5----------------------------
G|-----------7-6-7-6~----------------6~-
D|--------------------8-7-7-7-8--5-7----
A|--------------------------------------
E|--------------------------------------

   A                  B           G A
e|-------------------------------------
H|-5-6-5_6_5---------------------------
G|-----------7-6-7-6~-------7-6--------
D|--------------------8-7-8----8--5-7--
A|-------------------------------------
E|-------------------------------------


Uzmi za me
oku zlata
pa pozlati
dvoru vrata.
pa pozlati
dvoru vrata.
Komentari
Još nema komentara