Divlje Jagode

Krivo je more (solo, akusticna gitara)

by: Sholym96

Pronađi akord!

Ne znaš kako odsvirati neki od akorda pjesmi Krivo je more (solo, akusticna gitara)? Upiši akord u tražilicu i saznaj!

Traženi akord će se prikazati ovdje

Od istog izvođača

Pregledano 19664 puta
Pregledano 11410 puta
Pregledano 6695 puta
Pregledano 3645 puta
Pregledano 4560 puta
Trebaš ritam za ovu pjesmu? Pronađi ga ovdje
Za sve one koji sviraju na akusticnim gitarama. (prilagodjeno)

Akordi/Tabovi:
e-----7-7-------------------------7-8--8-7-------7-------7-8-7------------------------------------------
H----------10----8p7-8-----10--------------8---------8-----------7---10-8---7-------------------------
G----------------------------------------------7------------------------------------9-9-9-9--7----------
D---------------------------------------------------------------------------------------------------10-9-7


Na kraju pesme na poslednjem ponavljanju sola mozete dodati 5 na D zici ili razloziti akord G.
Komentari

Arnold Layne kaže:

Akordi/Tabovi:
e-----7-7-------------------------7-8--8-7-------7-------7-8-7------------------------------------------
H----------10----8p7-8-----10--------------8---------8-----------7---10-8---7-------------------------
G----------------------------------------------7------------------------------------9-9-9-9--7----------
D---------------------------------------------------------------------------------------------------10-9-7


Na kraju pesme na poslednjem ponavljanju sola mozete dodati 5 na D zici ili razloziti akord G.

11-01-2012 14:55