Opća Opasnost

Lovac na Novac

by:

Pronađi akord!

Ne znaš kako odsvirati neki od akorda pjesmi Lovac na Novac? Upiši akord u tražilicu i saznaj!

Traženi akord će se prikazati ovdje

Od istog izvođača

Pregledano 1931 puta
Pregledano 6260 puta
Pregledano 6156 puta
Pregledano 4436 puta
Pregledano 36325 puta
Trebaš ritam za ovu pjesmu? Pronađi ga ovdje
Akordi/Tabovi:
e|--------------------------------------------------------------|
B|---3-----------------------------------------------------------|
G|---2------------------------------------ 12--10--9---7--5--3---|
D|---0-----3-0-3-0------0---3-0-3-0--------12--10--9---7--5--3---|
A|------------------3----------------3-----10---8--7---5--3--1---|
E|---------------------------------------------------------------|


e|-------------------------------------------------------|
B|---3---------------------------------------------------|
G|---2-------------------------------------12--10--9----|
D|---0-----3-0-3-0-------0---3-0-3-0-------12--10--9----|
A|-------------------3----------------3----10---8--7----|
E|-------------------------------------------------------|


e|-----------------------------------------------------------------|
B|---3-------------------------------------------------------------|
G|---2--------------------------------------12--10--9---7--5--3----|
D|---0-----3-0-3-0-------0---3-0-3-0--------12--10--9---7--5--3----|
A|-------------------3-----------------3----10---8--7---5--3--1----|
E|-----------------------------------------------------------------|


e|-------------------------------------------------------|
B|---3---------------------------------------------------|
G|---2------------------------------------12--10--12-----|
D|---0-----3-0-3-0-----0---3-0-3-0--------12--10--12-----|
A|------------------3---------------3-----10---8--10-----|
E|-------------------------------------------------------|
Komentari
Još nema komentara