Oliver Dragojević

Vjeruj u Ljubav

by: Lookee

Pronađi akord!

Ne znaš kako odsvirati neki od akorda pjesmi Vjeruj u Ljubav? Upiši akord u tražilicu i saznaj!

Traženi akord će se prikazati ovdje

Od istog izvođača

Pregledano 98435 puta
Pregledano 45383 puta
Pregledano 3077 puta
Pregledano 5743 puta
Pregledano 455 puta
Trebaš ritam za ovu pjesmu? Pronađi ga ovdje
Akordi/Tabovi:
[code]           C7+G                                       C7
e|---------3-------  |     e|---------0-------  |
B|---------1-------  |     B|---------1-------  |
G|---------3-------  |    G|---------3-------  |
D|---------2-------  |    D|---------2-------  |
A|---------X-------  |    A|---------X-------  |
E|---------X-------  |     E|---------X-------  |



Napomena:
-Nisam nasao ime prvog naznacenog akorda pa sam mu samo dodao +G kao znak da je to obicni C7 sa povisenim G tonom. U ovom slucaju C7 se svira sa D zicom na 2. polju (E nota) a ne sa A na 3. polju (C nota) kao inace.
-Dovoljno je maknuti mali prst kad se prelazi sa C7+G na C7.
-Pjesma je svirana na klaviru pa je puna falseta i dodatnih nota. Ako slusate pjesmu cut cete ih pa dodavajte.

Intro:
                                               C
e|------------------------0--------------------------|
B|------------------------1--------------------------|
G|------------------------0--------------------------|
D|------------------------2--------------------------|
A|--------------0----3--------------------------------|
E|----0----1------------------------------------------|


C            C7+G  C7  F                    G
Vjeruj  u  lju---bav  jer ljubav je sve

C            C7+G  C7   F                   G
vjeruj  u  lju---bav  ne  zivi  bez nje

C         Am      F Em Dm  C       
vjeruj u ljubav i sacuvaj nju

F           C           G   F   G   C         F   C     
vjeruj u ljubav u dobru  i   zlu

C           C7      F                  G        F        C
daj mi svoju ruku sad neka ljubav veze nas

C             C7     F          E7         Am
daj mi svoju ruku sad kao rijedak cvijet

      C     C7      F         G        F                  C
daj mi svoju ruku sad prava ljubav je uz nas

              Dm7   G F G  C             F   C
nek nas vodi u sretniji svijet

Falset/solaza modulacije:
                                                                                             [i] Vjeruj u ljubav...[/i]
                                     A        A     Asus    A   Add9    D
e|-------------------0----0----0----0----0----3--------------|
B|-------------------2----2----3----2----0----2--------------|
G|-------------------2----2----2----2----2----3-------------|
D|-------------------2----2----2----2----2----0-------------|
A|----0----2----4----0----0----0----0----0------------------|
E|-----------------------------------------------------------|

D            D7      G           A
Vjeruj  u  ljubav  jer ljubav je sve

D            D7      G           A
vjeruj  u  ljubav  ne  zivi  bez nje

D         Hm      G F#m Em   D       
vjeruj u ljubav i sacuvaj  nju

G        D            A      G  A   D     G   D
vjeruj u ljubav u dobru i  zlu

D           D7         G                A     G      D
daj mi svoju ruku sad neka ljubav veze nas

D           D7          G          F#7         Hm
daj mi svoju ruku sad kao rijedak cvijet
      D     D7      G         A      G              D
daj mi svoju ruku sad prava ljubav je uz nas
        Em7  A  F  A  D         D
ona može promjeniti svijet.

I tako dalje. Pjesma se penje uvijek za 2 polustepena iz kitice u kiticu. Kao sto je prvi akord bio C u prvoj kitici a u drugoj D u trecoj ce biti E. Svi akordi se micu za tocno sa polustepena i pjesma ostaje ista u odnosima medju akordima.

U drugoj kitici slijed bi trebao biti naravno D/D7+A/D7 sto je naravno samo pomicanje pozicije za dva polustepena naprijed. Ipak, hvatanje D7 akorda na drugoj poziciji nije vise efikasno jer se gubi razlika u tonovima tj. taj 5 ton gubi na snazi. Isto tako nije moguce samo maknuti mali prst jer se to nije D7 akord. Ja preporucam sviranje obicnog D7 akorda na prvoj poziciji. Ipak ispod mozete naci D7+A i zice koje se sviraju.

          D     D7+A  D7
e|----3----5----X--------------------------------------|
B|----3----3----3--------------------------------------|
G|----2----5----5--------------------------------------|
D|----0----4----4--------------------------------------|
A|--------------------------------------------------|
E|--------------------------------------------------|

X - Ne svirati


Mozda ubrzo i neki video tutorial na ovo dodje.
[/code]
Komentari
Još nema komentara