Plavi Orkestar

Fa Fa Fašista Nemoj Biti Ti (Jerbo Ću Te Ja Draga Ubiti)

by:

Pronađi akord!

Ne znaš kako odsvirati neki od akorda pjesmi Fa Fa Fašista Nemoj Biti Ti (Jerbo Ću Te Ja Draga Ubiti)? Upiši akord u tražilicu i saznaj!

Traženi akord će se prikazati ovdje

Od istog izvođača

Pregledano 70005 puta
Pregledano 5353 puta
Pregledano 8478 puta
Pregledano 4475 puta
Pregledano 13214 puta
Trebaš ritam za ovu pjesmu? Pronađi ga ovdje
Akordi/Tabovi:
Plavi orkestar - fa fa fasista, nemoj biti ti


solo:
     Am      C       G        F       
e|--8-5-8-5-8-5------8-5-8-5-12-10-8-5-
H|--------------8-5--------------------
G|-------------------------------------
D|-------------------------------------
A|-------------------------------------
E|-------------------------------------

    Am      C        G              F
e|--8-5-8-5-8-5------------1-------------------
H|--------------8-5--3-3-3---3-1-0--1----------
G|------------------------------------2-2-0-2--
D|---------------------------------------------
A|---------------------------------------------
E|---------------------------------------------

rifovi: 
A G A C C C H C  G G F# G  F F E F E F E F E
A G A C C C H C  G G F# G  F F F E F

Am                 C   
Sjecas li se draga kraljevica Petra   
G                 F   
ostavio zemlju na nogama od vjetra.


Tada si ti draga ostavila mene   

da mi glava trne i srca da mi vene.

solo:

Plakala ti majka, plakao ti babo
zaveo te draga zlatokosi svabo.

Otisla si njemu, ne treba mi druga 
G            F               E  E7
u vihoru rata ostala mi tuga.

ref:

Am              D C D E          Am  E7   
Fa, fa, fasista       nemoj biti ti   
Am        C G  F     E7  Am    E7   
jerbo cu te ja draga ubiti.   

solo:

Hitlerovom sinu sada grijes pitu   
bacila si moju od zumbula kitu.    2x 

Postala si dama crnog kupleraja   
a ja cu da hladim Trumanova jaja.   2x

ref: 

Am                C
Ako primis draga, Ako primis draga 
G               F
ovo moje pismo, ovo moje pismo   
Am              C
zao mi je mila, zao mi je mila
G                 F
voljeli se nismo, voljeli se nismo   
Am               C
pogledaj u nebo, pogledaj u nebo
G                    F
jedna zvijezda pada, jedna zvijezda pada 
Am                  C
to se ljeto sprema, to se ljeto sprema
G                 F
a mene vise nema, a mene vise nema

Am        C  Dm       E          Am  E7 
Fa, fa, fasista       nemoj biti ti
Am        C G  F     E  Am    E7   
jerbo cu te ja draga ubiti.
Komentari
Još nema komentara