Plavi Orkestar

od rodjendana do rodjendana (solo)

by:

Pronađi akord!

Ne znaš kako odsvirati neki od akorda pjesmi od rodjendana do rodjendana (solo)? Upiši akord u tražilicu i saznaj!

Traženi akord će se prikazati ovdje

Od istog izvođača

Pregledano 640 puta
Pregledano 17611 puta
Pregledano 8655 puta
Pregledano 4505 puta
Pregledano 8649 puta
Trebaš ritam za ovu pjesmu? Pronađi ga ovdje
Akordi/Tabovi:
E||----------------------------------------------------|
B||----------------------------------------------------|
G||----------------------------------------------------|
D||--9--11---9^---7--9-------------9--11---9^------7---|
A||----------------------------------------------------|
E||----------------------------------------------------|
                                                                         
E||----------------------------------------------------|
B||----------------------------------------------------|
G||----------------------------------------------------|
D||-7-6-7-6-7-9----7---9--11-----7--9--7---------------|
A||----------------------------------------------------|
E||----------------------------------------------------|

E||----------------------------------------------------|
B||----------------------------------------------------|
G||----------------------------------------------------|
D||--9--11---9^---7--9-------------9--11---16----------|
A||----------------------------------------------------|
E||----------------------------------------------------|


                                               
E||-----------------------------------------------------------||
B||-----------------------12^14-12^14---10-10-12--10-9--9---10||
G||---------9----9 -------------------------------------------||
D||----9-11---11----------------------------------------------||
A||-----------------------------------------------------------||
E||-----------------------------------------------------------||

Ako ko ima kakvu primjedbu , bilo bi mi drago da me ispravite ,posto mi je ovo prvi solo koji sam skinuo :D
Komentari

big_box kaže:

27-07-2011 18:28