Johnny Cash

The Mercy Seat

by: Svizac

Pronađi akord!

Ne znaš kako odsvirati neki od akorda pjesmi The Mercy Seat? Upiši akord u tražilicu i saznaj!

Traženi akord će se prikazati ovdje

Od istog izvođača

Pregledano 1870 puta
Pregledano 2430 puta
Pregledano 1604 puta
Pregledano 1907 puta
Pregledano 2476 puta
Trebaš ritam za ovu pjesmu? Pronađi ga ovdje
Akordi/Tabovi:
intro tab

|-----------------|-------------|
|-----------------|-------------|
|-----------------|-------------|
|-----------------|-------------|
|---------0-------|-----0-------|
|-0-2h3h4---3-2-0-|-3-4---3-2-0-|

intro chords: Am, E

Chorus chords:

And the Mercy Seat is waiting...

-0----0----0----3----1----0----0----0----|
-1----1----1----0----0----1----1----1----|
-2----1----0----0----0----2----2----2----|
-2----2----2----0----0----3----3----2----|
-0----0----0----2----2----0----0----0----|
-0----0----0----3----3----1---------0----|
Am Ammag7 Am7  G     G7  F?  Fmag7  Am
Komentari
Još nema komentara