Divlje Jagode

Stakleni Hotel

by: rock forever

Pronađi akord!

Ne znaš kako odsvirati neki od akorda pjesmi Stakleni Hotel? Upiši akord u tražilicu i saznaj!

Traženi akord će se prikazati ovdje

Od istog izvođača

Pregledano 365212 puta
Pregledano 12435 puta
Pregledano 55324 puta
Pregledano 12157 puta
Pregledano 23801 puta
Trebaš ritam za ovu pjesmu? Pronađi ga ovdje
Akordi/Tabovi:
STAKLENI HOTEL TAB


[Am]U stakleni hotel
[C]stizem [G]na pola pu[Am]ta
u stakleni hotel
[C]nakon [G]dzombasta pu[Am]ta
[F]dremljivi [G]portir pita za [Am]ime
[F]da li mu [G]reci od koje sam [Am]sorte

[Am]U stakleni [Dm]hotel
stizem na pola pu[Am]ta
u stakleni [Dm]hotel
nakon dzombasta [E]puta[G]

U stakleni hotel
stizem bez imena *
s dobrom namjerom
bit cu prijatelj svima *
glazba limena nije za mene
glazba limena nije nije za mene

INTRO RIFF

e ----------------------------------------------------------------------
H ----------------------------------------------------------------------
G -------5-----7-----5-----7-----7-------5-----7-----5-----7-----7--5---
D -------5-----7-----5-----7-----7-------5-----7-----5-----7-----7—-5--- x3
A ---0-0---0-0---0-0---0-0---0-0-----0-0---0-0---0-0---0-0---0-0--------
E ----------------------------------------------------------------------

e --------------------------------------
H --------------------------------------
G -------5-----7-----5-----7-----7------
D -------5-----7-----5-----7-----7--7---
A ---0-0---0-0---0-0---0-0---0-0----7---
E ----------------------------------5---
Komentari
Još nema komentara