Laufer

Bio sam kiša

by:

Pronađi akord!

Ne znaš kako odsvirati neki od akorda pjesmi Bio sam kiša? Upiši akord u tražilicu i saznaj!

Traženi akord će se prikazati ovdje

Od istog izvođača

Pregledano 166581 puta
Pregledano 1509 puta
Pregledano 1999 puta
Pregledano 11755 puta
Pregledano 1552 puta
Trebaš ritam za ovu pjesmu? Pronađi ga ovdje
Akordi/Tabovi:
-------------------------------------------------------------------------------
                            Bio sam kisa - Laufer
-------------------------------------------------------------------------------

Tabbed by: brian_s
Email: bsremec@gmail.com


Intro:
e------0-------0---------0---0-----|
B---/4-----4-4---0---0h2---2---2---|
G----------------------------------|  2x
D----------------------------------|
A----------------------------------|
E----------------------------------|

e------------------3---------------3---|
B--------------3---3-------3-------3---|
G---/4\2p0-2p0-----0-------2-------0---|
D--------------------------0-----------|
A--------------------------------------|
E--------------------------------------|


1st Verse:
e-------------3-------------------3------------|
B---3---------3--------3----------3------------| 
G---2---------0--------2----------0------------|  4x
D---0------------------0-----------------------|
A----------------------------------------------|
E----------------------------------------------|
       Probudio sam se izgubljenog jezika...


1st Bridge:
e-----------------------------------------------|
B-----------------------------------------------|
G---6-6-6-6-6-------------4-4-4-4-4-4-4-4-4-4---|  2x
D---6-6-6-6-6--5-5-5-5-5--4-4-4-4-4-4-4-4-4-4---|
A---4-4-4-4-4--5-5-5-5-5--2-2-2-2-2-2-2-2-2-2---|
E--------------3-3-3-3-3------------------------|
      U tudjoj zemlji      bio sam kisa...


2nd Verse:
e-----0------------3p2------0------------3------2---------|
B-------3---------------------3------------3------3-------| 
G---2-----2---------------2-----2------------0------0-----|  4x
D---0-------0----0--------0-------0----0--------------0---|
A---------------------------------------------------------|
E---------------------------------------------------------|
      Probudio sam se      u   tijelu    gomile...


Chorus:
e------------------------------------------------|
B------------------------------------------------|
G---2-2-2-2-2--2-2-2-2-2--5-5-5-5-5--2-2-2-2-2---|  2x
D---2-2-2-2-2--3-3-3-3-3--5-5-5-5-5--3-3-3-3-3---|
A---0-0-0-0-0--3-3-3-3-3--3-3-3-3-3--3-3-3-3-3---|
E--------------1-1-1-1-1-------------1-1-1-1-1---|
    Pooo      oooo      oooo     oooo      ljubio
    sam            noc        u      usta


2nd Bridge:
e-----------------------------------------------|       Pažnja!
B-----------------------------------------------|       Akordi u 1-om bridge
G---7-7-7-7-7-------------4-4-4-4-4-4-4-4-4-4---|  2x   su C# G i B.
D---7-7-7-7-7--5-5-5-5-5--4-4-4-4-4-4-4-4-4-4---|       Ali u 2-om bridge
A---5-5-5-5-5--5-5-5-5-5--2-2-2-2-2-2-2-2-2-2---|       su D G i B.
E--------------3-3-3-3-3------------------------|
      U tudjoj zemlji      bio sam kisa...


3rd Verse:
e-------------3-------------------3--3-2-------|
B---3---------3--------3----------3--3-3-------| 
G---2---------0--------2----------0------------|  2x
D---0------------------0-----------------------|
A----------------------------------------------|
E----------------------------------------------|
       Probudio sam se izgubljenog jezika...


Chorus:
e------------------------------------------------|
B------------------------------------------------|
G---2-2-2-2-2--2-2-2-2-2--5-5-5-5-5--2-2-2-2-2---|  4x
D---2-2-2-2-2--3-3-3-3-3--5-5-5-5-5--3-3-3-3-3---|
A---0-0-0-0-0--3-3-3-3-3--3-3-3-3-3--3-3-3-3-3---|
E--------------1-1-1-1-1-------------1-1-1-1-1---|
    Pooo      oooo      oooo     oooo      ljubio
    sam            noc        u      usta


Outro:
e------------------------------------------------3-2---|
B--------3-------------3-------------3-----------3-3---|
G---2----2--------0----2--------2----2-----------------|
D---0-------------0-------------0----------------------|
A------------------------------------------------------|
E------------------------------------------------------|


p   =   pull off
/   =   slide down
\   =   slide up
h   =   hammer on
Komentari
Još nema komentara