Prljavo Kazalište

Prljavo kazaliste- Pet dana ratujem

by: problem child

Pronađi akord!

Ne znaš kako odsvirati neki od akorda pjesmi Prljavo kazaliste- Pet dana ratujem? Upiši akord u tražilicu i saznaj!

Traženi akord će se prikazati ovdje

Od istog izvođača

Pregledano 16052 puta
Pregledano 36739 puta
Pregledano 3120 puta
449
Pregledano 10598 puta
Pregledano 15302 puta
Trebaš ritam za ovu pjesmu? Pronađi ga ovdje
samo da napisem da sam ovo kopirao sa stranice ˝Akordi za gitaru- zelim samo da sviram˝ sa nekim izmjenama

Akordi/Tabovi:
e|-3-------------------------------------3-2------| 
B|-3-3-----------------------------------3-3------| 
G|-0-2---2--------2-2--x-x--2--------2-2-0-2------| 
D|-0-0---2--------2-2--x-x--2--------2-2-0-0------| 
A|-2-----0--3p0---0-0--x-x--0--3p0---0-0-2--------| 
E|-3------------3------x-x---------3-----3--------| 

A5
Ne boj se duso migova, niti kemijskog oruzja  e|-----------
                                              B|-----2---2-
                                              G|-----2---2-
                                              D|-----2---2-
                                              A|-3-3-0-3-0-
                                              E|-----------
A5
Ne pomaze im nista protiv nas, niti bomba atomska e|-3-2--
                                                  B|-3-3--
                                                  G|-0-2--
                                                  D|-0-0--
                                                  A|-2----
                                                  E|-3----
A5
Obrni se, okreni se, ti si krasna jabuka
A5
Neka nocas bude krevet moj umjesto sklonista

e|---------------------------------------|
B|---------------------------------------|
G|---------------------------------------| 2x
D|---------------------------------------|
A|---7-7-4--5-5--<4>----7-7-4--5--4-5-4--|
E|---------------------------------------|
     Nista,ne mogu nam nista

REFREN:
D       A       E     A
Pet dana duso, ja ti ratujem
D         A          E          F#m
Subotom se kao, malo ja zaljubljujem
D            A       E          A
Ne moze nam nista ni bomba atomska
D         A          E              B
Ima nesto puno jace, pjesma mangupska e|--21br--|
                                      B|--------|
                                      G|--------|
                                      D|--------|
                                      A|--------|
                                      E|--------|

A5
Ne boj se duso pucnjave, niti zracne uzbune
A5
Pali su Staljin, Napoleon, sve rimske falange
A5
Za ljubav u moju kosu stavi zute cvjetove
A5
Cure dok ste vi uz nas

REFREN:
D       A       E     A
Pet dana duso, ja ti ratujem
D         A          E          F#m
Subotom se kao, malo ja zaljubljujem
D            A       E          A
Ne moze nam nista ni bomba atomska
D         A          E              B
Ima nesto puno jace, pjesma mangupska

SOLO -  :/

A5
Ne boj se duso migova, niti kemijskog oruzja
A5
Ne pomaze im nista protiv nas, niti bomba atomska
A5
Obrni se, okreni se, ti si krasna jabuka
A5
Neka nocas bude krevet moj umjesto sklonista

e|---------------------------------------|
B|---------------------------------------|
G|---------------------------------------| 2x
D|---------------------------------------|
A|---7-7-4--5-5--<4>----7-7-4--5--4-5-4--|
E|---------------------------------------|
Nista, ne mogu nam nista

REFREN:
D       A       E     A
Pet dana duso, ja ti ratujem
D         A          E          F#m
Subotom se kao, malo ja zaljubljujem
D            A       E          A
Ne moze nam nista ni bomba atomska
D         A          E              B
Ima nesto puno jace, pjesma mangupska


solo nisam mogo nac ni ne znam ga...
Komentari
Još nema komentara