Gibonni

divji cvit new

by:

Pronađi akord!

Ne znaš kako odsvirati neki od akorda pjesmi divji cvit new? Upiši akord u tražilicu i saznaj!

Traženi akord će se prikazati ovdje

Od istog izvođača

Pregledano 19395 puta
Pregledano 11698 puta
Pregledano 6319 puta
Pregledano 1426 puta
Pregledano 817 puta
Trebaš ritam za ovu pjesmu? Pronađi ga ovdje
Akordi/Tabovi:
1--------5h6-s8-b10b10-8p6h8-8/13b-13s12-10p8-8-12p8------
2-8p6p5h8------------------------------------------/11p10-
3---------------------------------------------------------

1-----------------/13-13-12-10--12h13-15~-15/20----------
2-8--8h10~8~------------------13-------------------------
3--10-------10-10~---------------------------------------

F               C      d     B      F
Nije mi potriba sad ka sempja gubiti mir
           d       C       B     (C)        F
jer ja san proguca kost za jubav nimam lipu ric   1 --b17p15b17~---13-
              C      d            B        F
i zali Boze i trud i ludu glavu s kojom ne mislim 1-----13-12~13-
         d      C     B                  C        2---13---------
ko me je natira da je probam, da je vako zavolim  3-14-----------

1-----------------10p8-12p10-13p12--
2-6h8p6-10p8-11p10------------------
                  F
da je vako zavolim

F B, F       B        F  C   F    ( B C)
U sr-ce me potocaj ka di-vji cvit        (1 15s17-18-17-15-13-12h13p12
F  C   F(d)    B      F A   d            (2 ---------------(15)------13
pu-sti dazd iz oka da o-kri-pi
   B       F  C     F
tu naciklu ju-bav u meni

1-13p8------------
2------11p10-------
3-----------12s10--
B              F                     
A da je coviku bit ka raspa
G         B    C     B
i da je u dusi zal i grub
            F              C  (1 ----------12h13-15-
ja ne bi se da do kraja, a-a  (2 10-11-1313---------
                         B
i ne bi vako ginija za nju

               F
A da je coviku bit ka raspa   3 10p5-10p5---
G           B    C    B       4----------7--
da nista ne cuti ka i zvir    5 ----------8-
            F              C
ja ne bi se da do kraja, a-a
                       
ko me tira da je vako zavolim,
1 8-10p8h10-/12p10-12-/13p12-13...
   ../15p13-15-17s18s20-----------
                 (C7)      F   
ko me tira da je vako zavolim


F B, F       B        F  C   F    (B C)
U sr-ce me potocaj ka di-vji cvit

1-13r-12r-------------------------------
2--------13r-101110h11p10h11------------
3---------------------------12-10p9h10~-

F  C   F(d)    B      F A   d  B        2 -11h13---
pu-sti dazd iz oka da o-kri-pi          3 ------13-
F B, F       B        F  C   F   (B C)
U sr-ce me potocaj ka di-vji cvit
F  C   F(d)    B      F A   d
pu-sti dazd iz oka da o-kri-pi
   B       F  C     B   F
tu naciklu ju-bav u meni

1---10-12r--b13-12-------------------------------------
2-13---------------13\6-5-6p5-8p6-10p8-11p10-11p10p8---
3---------------------------------------------------10-

F               C      d     B      F
i ni mi potriba sad ka sempja gubiti mir
           d       C       B     (C)        F
jer ja san proguca kost za jubav nimam lipu ric 

1-----------------------------------17-13-
2-10h11p10-8h10p8------8-10h11-13h17------
3----------------10p9-9-------------------
              C      d            B        F
i zali Boze i trud i ludu glavu s kojom ne mislim
         d      C       B           C        F
ko me je natira da je probam, da je vako zavolim
      C        F      C    d  B    F
da je vako zavolim, eeeo eeeo oooooo
         d      C       B           C        F
ko me je natira da je probam, da je vako zavolim

1---------------------------------
2-10-11-13b13b-10h11p10p8-10p8----
3-----------------------------9p8-
odustajen do bolje gitare s procesoron
Komentari

Elvis Presley kaže:

Ovo si ti skinuo ili kopirao od nekud?

26-09-2011 15:13

garfield kaže:

jes tribalo je zavrsit al drugi put

17-10-2011 01:57

tech kaže:

probajte Bb umjesto B

29-10-2017 09:55