Nina Romić

U mom malom mraku

by: xsara

Pronađi akord!

Ne znaš kako odsvirati neki od akorda pjesmi U mom malom mraku? Upiši akord u tražilicu i saznaj!

Traženi akord će se prikazati ovdje

Od istog izvođača

Pregledano 2836 puta
Pregledano 1580 puta
Pregledano 3788 puta
Trebaš ritam za ovu pjesmu? Pronađi ga ovdje
Akordi/Tabovi:
Nina Romić
U mom malom mraku

(Album:Daljine,2010.)

Tuning:Std(eBGDAE)
...........................
Capodaster na drugom polju!
...........................

Intro...i dalje...
1.varijanta(na albumu,sa capom):
(http://www.youtube.com/watch?v=Z5thcVpaSq8
   G   Em          B7       C       
e|---3---0---0---0---2---2/3--3-----3-0-|
B|---0---0---0---0---0---0----1-----1-1-|
G|---0---0---0---0---2---2----0---------|
D|---------------------1----------2-----|
A|-----2-------2---2--------3-----------|
E|-3-------0----------------------------| 2x

2.varijanta(svira uživo,sa capom):
(http://www.youtube.com/watch?v=Q076jDWu43A)
   G    Em             B7          C       
e|---3----0----0----0----2----2/3---3---3--|
B|---0----0----0----0----0----0-----1---1--|
G|----0----0----0----0----2----------0---0-|
D|---------------------------1---------2---|
A|------2---------2----2-----------3-------|
E|-3---------0-----------------------------| 2x

3.varijanta
(svira uživo-snimka u radijskom studiju,bez capodastera):
(http://www.youtube.com/watch?v=eIC1x0cTpvw)
   G    Em              B7           C       
e|---3----0-----0----0----2-----2/3---3----3--|
B|---0----0-----0----0----0-----0-----1----1--|
G|--0-0--0-0---0-0--0-0--2-2---2-----0-0--0-0-|
D|----------------------------1----------2----|
A|------2----------2----2-----------3---------|
E|-3----------0-------------------------------| 2x


G    Em           B7    C    G
Kako sam zalupila sinoć vratima
          Em             B7    C   G
moja mala soba dugo je i tiho drhtala
              Em             B7
a tvoje divno lice, sa druge strane
C           G
pod upitnicima
    Em             B7   C
oprosti, katkad se ponašam kao da je
G    Em           B7 
petnaest godina u zraku
C           G    Em B7 C
u mom malom mraku

G Em B7 C

G             Em
A plesali smo dugo, uz nepoznate
B7            C       G
boje metalnih reflektora
       Em               B7
kad si rekao: 'ajmo se izgubiti
C        G    Em B7 C 
djevojko odavde.....skočiti u
G   Em B7 C
tamuuuuuu

G   D                   C           Em
Ako uspiješ zalediti trenutak volim te
    B7(F#)       C             Em
ali sutra me ne spominji molim te
    B7(F#)      C                     Em D(F#)C
ali sutra me ne spominji jer ne postojiiiiiiim
      Em D(F#)C  Em D(F#)C....
volim teeeee.....

G        Em                   B7
Žice sad trepere dok sunce se gasi
   C        G       Em
ma jel moguće da je nebo ovako
    B7     C      G
izbodeno u ovaj sat?
           Em                B7
zatamnjena polja iznad naših glava
     C    G
progovaraju

Em                 B7   C
Oprosti, katkad se ponašam kao da je
G    Em            B7
petnaest godina u zraku
C           G  Em B7 C
u mom malom mraku

G   D                   C           Em
Ako uspiješ zalediti trenutak volim te
    B7(F#)       C             Em
ali sutra me ne spominji molim te
    B7(F#)      C                     Em D(F#)C
ali sutra me ne spominji jer ne postojiiiiiiim
      Em D(F#)C  Em D(F#)C....
molim teeeee.....
Komentari
Još nema komentara