Zabranjeno pusenje

Pos'o, kuca, birtija

by: Muky-Slash

Pronađi akord!

Ne znaš kako odsvirati neki od akorda pjesmi Pos'o, kuca, birtija? Upiši akord u tražilicu i saznaj!

Traženi akord će se prikazati ovdje

Od istog izvođača

Pregledano 10987 puta
Pregledano 12360 puta
Pregledano 9785 puta
Pregledano 9598 puta
Pregledano 23401 puta
Trebaš ritam za ovu pjesmu? Pronađi ga ovdje
Akordi/Tabovi:
[b][i][u]Zabranjeno Pusenje - Pos'o kuca birtija[/u][/i][/b]

Intro: E A B E 2X

E                           H
Nikad nisam bio neki veliki vjernik
A          H                    E
Nisam cito stampu i nisam gledo dnevnik
E                             H
Nisam znao gdje sam i koja je klima
A          H               E
Ti si bila moje proljece i zima

Al otkako je presusio okean
Ja vise srece u ljubavi nemam
Al otkako se ugasio vulkan
Ja po cijeli dan sam po sobi lutam

             C#m   H
Al otkako si snjim
          C#m H  A
Otkako si ooo-ti-sla
            C#m   H
Zivot mi je siv
            C#m H   A
Poso, kuca, bii-rti-ja

             C#m   H
Al otkako si snjim
          C#m H  A
Otkako si ooo-ti-sla
            C#m   H
Zivot mi je siv
            A
Zivot mi je poso, kuca, birtija

Intro: E A B E 2X

Zavrsit cu sad k'o svi stari cugeri
U ovom bircu gdje skupljaju se luzeri
I necu dat nikome da ti spomene ime
I TV cu gledat od himne do himne

Al otkako si snjim
Otkako si otisla
Zivot mi je siv
Poso, kuca, birtija

Otkako si s njim
Otkako si otisla
Zivot mi je siv
Zivot mi je poso, kuca, birtija
Komentari

Muky-Slash kaže:

21-01-2011 15:18

Muky-Slash kaže:

21-01-2011 15:18

zZz kaže:

jel bi mogo neko stavit tab i za ovu drugu gitaru ?

29-12-2011 22:22

DZIL kaže:

da fakat tabove za ovaj uvod i ovo sta ide kroz cijelu pjesmu

21-03-2012 20:35

whammy kaže:

e----4-4-5-4----4-4-5-4----4-4-5-4-----4-4-5-4-----4-4-5-------
B-------------5------------5-------------5-------------7-----------7-----
G----------------------------------------------------------------------------
D----------------------------------------------------------------------------
A----------------------------------------------------------------------------
E---------------------------------------------------------------------------- - Mislim da ovako ide uvod


e-------------------------------------
B-------------------------------------
G----8-7-5---8-7-5--8-7-8-7-5-
D-------------------------------------
A-------------------------------------
E------------------------------------- - U refrenu ide nešto na ovaj fazon, malo bolje poslušajte.



Sve kritike su dobro došle !
Živjeli !

13-10-2013 12:00

whammy kaže:

e--4-4-5-4----4-4-5-4----4-4-5-4-----4-4-5-4-----4-4-5-----
B------------5------------5-------------5-------------7-----------7--
G----------------------------------------------------------------------
D----------------------------------------------------------------------
A----------------------------------------------------------------------
E--------------------------------------------------------------------- - Mislim da ovako ide uvod


e----------------------------------
B----------------------------------
G-8-7-5---8-7-5--8-7-8-7-5-
D----------------------------------
A----------------------------------
E--------------------------------- - U refrenu ide nešto na ovaj fazon, malo bolje poslušajte.



Sve kritike su dobro došle !
Živjeli !

13-10-2013 12:03

whammy kaže:

e--4454----4454----4454-----4454-----4454----
B---------5----------5----------5----------7-----------7--

UVOD

Ako neko zna kako se mjenja komentar, nek mi kaže da se ne blamiram i ne postavljam 3x nešto..

13-10-2013 12:11

belmin kaže:

Koji je ritam,početnik sam pa ne mogu sam da skontam :D

06-05-2014 19:01