Divlje Jagode

Kap po kap

by: Muky-Slash

Pronađi akord!

Ne znaš kako odsvirati neki od akorda pjesmi Kap po kap? Upiši akord u tražilicu i saznaj!

Traženi akord će se prikazati ovdje

Od istog izvođača

Pregledano 30577 puta
Pregledano 14637 puta
Pregledano 9916 puta
Pregledano 9898 puta
Pregledano 11594 puta
Trebaš ritam za ovu pjesmu? Pronađi ga ovdje
Akordi/Tabovi:
Divlje Jagode - Kap po kap

Solo 1
|-----------|--------------|--------------|-------------|
|---5-------|------5-------|--------------|-----------5-|
|-----7-5-7-|--5-7---7-5---|----------4-5-|-4-5-4-5-7---|
|-----------|------------7-|-6-7-6-7------|-------------|
|-----------|--------------|--------------|-------------|
|-----------|--------------|--------------|-------------|

|-----------|--------------|--------------|----------------|
|---5-------|------5-------|--------------|----------------|
|-----7-5-7-|--5-7---7-5---|----------4-5-|-4-5-7--4/5\4---|
|-----------|------------7-|-6-7-6-7------|--------------7-|
|-----------|--------------|--------------|----------------|
|-----------|--------------|--------------|----------------|

Am
Jednom kad sretnes me
   G         Am
To necu biti ja
Am
Vec samo uspomene
G          Am
Mrve sjecanja
C           G    Dm         Am
Samo prazna bol, sad je ostala
C      G        Dm
Prazna bol kajanja

Prelaz 1
|-----------------------|
|-----------------------|
|---------10----9----9--|
|-9-10-12----12---10-9--|
|--------------------7--|
|-----------------------|

E               F
I sta radis ti, nije vazno mi
G             C         E
Jer kisa jesenja, podsjeca

Prelaz 2
|-----------------|----|-----------------|
|-5-6---5---------|----|---5-6---5-------|
|-----7---5-7-4-5-|-x3-|-7-----7---5-7-4-|
|-----------------|----|-----------------|
|-----------------|----|-----------------|
|-----------------|----|-----------------|

Am     F    C           G
Kap po kap, kisa sprema se
        Am          F     
Samo da znas, nisam lud
   C          G
Da mislim na tebe

Prelaz 3
|-------------------|
|-------------------|
|-7-9-10--7-9-5-7-4-|
|-------------------|
|-------------------|
|-------------------|

Am     F    C        G
Kap po kap, opet padace
        F         Am    E
Te duge kise jesenjeeeeeee

Solo 1
(napisan gore)

Jednom kad dani ovi
Fino posive
Ne zovi mene ti
I ne trazi me
Hladno srce meni dala si
Hladno srce, ostani

Prelaz 1
(gore napisan)

I s kim sada si, nije vazno mi
Jer kisa jesenja, podsjeca

Prelaz 2
(gore napisan)

Kap po kap, kisa sprema se   
Samo da znas, nisam lud
Da mislim na tebe

Prelaz 3
(gore napisan)

Kap po kap, opet padace
Te duge kise jesenje

Solo 2
|---------------------------|----|-19---------------19-19^----------|
|------7-8------7-8-7-------|----|----17--18--17-18--------18-17-17-|
|-5-7-------5-7-------8-7-8-|-x2-|----------------------------------|
|---------------------------|----|----------------------------------|
|---------------------------|----|----------------------------------|
|---------------------------|----|----------------------------------|
Nastavak drugog sola moram napisati rijecima:
-Nakon sto ste sve ovo odsvirali morate uraditi slijedece:
trzalicom udarajte po drugoj zici na 19. polju, a istovremeno prstom druge ruke uradite slijedece:
|-------------|
|-17-15-13-12-|
|-------------|
|-------------|
|-------------|
|-------------|
...dakle samo ga pomijerajte po ovim pragovima (17,15,13,12) dok trzalicom udarate po 19. polju. To ce te najbolje skinuti slusajuci pjesmu :)
-Nakon svega ovoga se ponovi jos jednom Solo 1, i to je to :)

(P.S. za pocetnike koji ne mogu otkriti ritam, ritam je: DD GG DG)
Komentari

Muky-Slash kaže:

20-01-2011 20:41

DirectXP kaže:

:D .. mrak (Y) :D

21-01-2011 13:03

Almin Ališić kaže:

jedna od najjačih

14-11-2011 21:45

Almin Ališić kaže:

sigorno najbolja od divljih jagoda

14-11-2011 21:50