Nedeljko Bajić Baja

Pokazi svoje zmijsko telo

by: element_of_crime

Pronađi akord!

Ne znaš kako odsvirati neki od akorda pjesmi Pokazi svoje zmijsko telo? Upiši akord u tražilicu i saznaj!

Traženi akord će se prikazati ovdje

Od istog izvođača

Pregledano 30464 puta
Pregledano 4657 puta
Pregledano 4869 puta
Pregledano 3702 puta
Pregledano 1564 puta
Trebaš ritam za ovu pjesmu? Pronađi ga ovdje
Akordi/Tabovi:
Transkripcija : element_of_crime

Info : Hm = Bm
       B  = Bb


Nedeljko Bajic Baja - Pokazi svoje zmijsko telo

Uvod :

e|---------------------------------------------------------------
H|---------------------------------------------------------------
G|---------------------------------------------------------------
D|--9-----7------5-----4-------9-----7----5------4---------------
A|---------------------------------------------------------------
E|-7----5------3-----2-------7----5-----3-----2------------------

Tema : | G | A | Hm | Hm | 2x
       | G | G | A  | A  | G | A | Hm | Hm | 2x

Ritam za temu i strofe:

e|-x--3--x--3--------------------------------------------------------
H|-x--3--x--3--------------------------------------------------------
G|-x--4--x--4--------------------------------------------------------
D|-x--5--x--5------.........-----------------------------------------------
A|-x--5--x--5--------------------------------------------------------
E|-x--3--x--3-------------------------------------------------
   D  U  D  U

D = downstroke 
U = upstroke

     G            A           Hm
Tako lepa, prosto pamet da ti stane
     G          A         Hm
lepo vaspitana, fina devojka-a
      G         A           Em
danas te vrline smatraju za mane
      G         A           Hm
retko ko to zna da ceni kao ja

Kad te vidim, odmah proradi mi masta
tako suptilna a tako opasna
pa bas zato daj da pokazemo svima
da si savrsena, neka svako zna


Refren 2x

       Hm            A
Pokazi svoje zmijsko telo
          A
slobodno, smelo
        G      A      Hm
pohvali se kad imas s cim
                   A
Daj svima domaci zadatak
       A
nimalo lak
        G     A      Hm
nisi ti kriva sto si mrak


Uvek nasmejana, poznata po sarmu
osmeh tvoj od reci vise govori
mana ti je sto nijednu nemas manu
pa ti covek lako dusu otvori

Kad te vidim, odmah proradi mi masta
tako suptilna a tako opasna
pa bas zato daj da pokazemo svima
da si savrsena, neka svako zna

Refren 2x
Komentari

branco kaže:

Refren nije dobar...bez ljutnje...

Hm D A G A Hm
Pokaži svoje zmijso tijelo, slobodno smjelo, pohvali se kad imaš s ćim
D A G A Hm
daj svima domaći zadatak, nimalo lak nisi ti kriva što si mrak

05-04-2011 22:14