Neda Ukraden

Neda Ukraden - Tetovaža

by: avis92

Pronađi akord!

Ne znaš kako odsvirati neki od akorda pjesmi Neda Ukraden - Tetovaža? Upiši akord u tražilicu i saznaj!

Traženi akord će se prikazati ovdje

Od istog izvođača

Pregledano 289 puta
Pregledano 1577 puta
Pregledano 5493 puta
Pregledano 4436 puta
Pregledano 17460 puta
Trebaš ritam za ovu pjesmu? Pronađi ga ovdje
Akordi/Tabovi:
Neda Ukraden - Tetovaža (duet s Ivanom Zakom)


Uvod:   (a   G)   
         a   F   C   G   x2   a

Solo (uvod):

e|-5-8-10-12-12-10-8-10-7-7-8-10-8-7-5-----------------|
B|-----------------------------------------------------|
G|-----------------------------------------------------|
D|-----------------------------------------------------|
A|-----------------------------------------------------|
E|-----------------------------------------------------|

Dva puta:
e|-5-7-5-5-7-5-5-7-5-----------------------------------|
B|-------------------8-6-5-5-5-6-5-5-6-----5-----------|
G|-------------------------------------7-7---7-5-4-----|
D|-------------------------------------------------7-7-|
A|-----------------------------------------------------|
E|-----------------------------------------------------|

       a                 G     
Nikad nisam bila neki romantik,
    d                   a       
ali ti si mi okrenuo svijet.
         C                 G
Te tvoje oči su mi vratile osmijeh
  F
zauvijek....
               
        a                  G 
Spavao danju budan čekao zore
            d                    a
sa društvom pio, nisam gledao na sat.
       C                  G             
Trošio više nego što imam love
    F 
ponekad...


REF.
         a                G             
Na srcu mom stoji k'o tetovaža
      d                 a                                 
tvoje ime kao na ranu lijek.
                         G             
Da potrošiš život kao baraba,
        d                 a       
a onda naletiš na anđela tek.

        C              G       F   
I više nismo isti kao prije,
      G            a     
srećo moja, zbog tebe.


SOLO (DVA PUTA)


Nikad nisam bila ona što moli
bolje i sama nego sa bilo kim.
Samo sa tobom više nikad samoću
ne poželim...

Spavao danju budan čekao zore
sa društvom pio, nisam gledao na sat.
Trošio više nego što imam love
ponekad...

REF.

SOLO (DVA PUTA)

REF. (DVA PUTA)


Bok, ljudi!!!
Evo još jedna od Nede! :cool Prvi sam put napisao tab za solo pa nemojte zamjeriti na greškama.
Ispravljajte u komentarima!! Veliki pozdrav!!!
Komentari

MUHA kaže:

ma jako dobar

07-02-2011 19:25

avis92 kaže:

Ne znam na što misliš, ali hvala ako misliš ozbiljno!

11-02-2011 17:54