Oliver Dragojević

Andjela

by:

Pronađi akord!

Ne znaš kako odsvirati neki od akorda pjesmi Andjela? Upiši akord u tražilicu i saznaj!

Traženi akord će se prikazati ovdje

Od istog izvođača

Pregledano 37636 puta
Pregledano 18440 puta
Pregledano 4313 puta
Pregledano 4301 puta
Pregledano 5454 puta
Trebaš ritam za ovu pjesmu? Pronađi ga ovdje
Akordi/Tabovi:
Uvod: Am


e|---------7----7-8--8-10-8-7----|-------------7-7-8-7----------|
h|--10-10----10---------------10-|-9-9-10-9-10---------10-9-----|
g|-------------------------------|------------------------------|
D|-------------------------------|------------------------------|
A|-------------------------------|------------------------------|
E|-------------------------------|------------------------------|

e|---------7----7-8--8-10-8-7----|-------------7-7-8-7----------||
h|--10-10----10---------------10-|-9-9-10-9-10---------10-9--10-||
g|-------------------------------|------------------------------||
D|-------------------------------|------------------------------||
A|-------------------------------|------------------------------||
E|-------------------------------|------------------------------||



              Am
I kobni dodje dan,
               E
da srecu nam pomuti,

oprostaj tvoj i moj,
               Am
i rijeka suza vrelih.


              Am
Na mojoj ruci sav,
             Dm
samocu srce sluti,
         Am        E   Am
iz mog zivota sad ides ti.

Ref:

E6|--0---2---4-----|

Am
Andjela, Andjela, Andjela znaj,
           E
kad budes daleko,
                                Am
tvoga ce sunca sjaj isto da me grije,

E6|--0---2---4-----|

Am
Andjela, Andjela, Andjela znaj,
            E
da ceka te netko,
Dm              E             Am
i da ti vjeruje jos vise nego prije.     x2


A prodje zivot sav,
u ljubavi sa tobom,
za spomen osta sav,
i bol u dusi mojoj.


Ja ne znam sto cu sad,
ucinit sam sa sobom,
kad kuca tuge sad nas je dom.

Ref: x 2
Komentari

Saratlija.ante kaže:

Gitare info

23-09-2012 17:45