Zabranjeno pusenje

Ibro Dirka - Uvodni solo

by: Zeleni_Zub

Pronađi akord!

Ne znaš kako odsvirati neki od akorda pjesmi Ibro Dirka - Uvodni solo? Upiši akord u tražilicu i saznaj!

Traženi akord će se prikazati ovdje

Od istog izvođača

Pregledano 16369 puta
Pregledano 415 puta
Pregledano 9761 puta
Pregledano 7088 puta
Pregledano 1559 puta
Trebaš ritam za ovu pjesmu? Pronađi ga ovdje
Akordi/Tabovi:
-------------------------------------------------------------------------------------
---------------------------------------------------------------------------13-v12----
-------10-12/14-14-14-14-14-12-10-12-10----10-12-12-12-b12-12-12-r12-12-10-----------
-11/12----------------------------------12-------------------------------------------
-------------------------------------------------------------------------------------
-------------------------------------------------------------------------------------

-------------------------------------------------------------------------------------
-------------------------------------------------------------------------------------
-12/14-14-14-14-14-12-10-12-10----10-12-12-12-b12-12-12-r12-12-10-9-v10--------------
-------------------------------12----------------------------------------------------
-------------------------------------------------------------------------------------
-------------------------------------------------------------------------------------

Moze svirati na vise mjesta na gitari ja ga sviram ovdje jer mi najbolje zvuci :D
kao npr.
----------- . . .
-----6-8--- . . .
-6/7------- . . .
----------- . . .
----------- . . .
----------- . . .
Komentari
Još nema komentara