Zabranjeno pusenje

Ibro Dirka - Uvodni solo

by: Zeleni_Zub

Pronađi akord!

Ne znaš kako odsvirati neki od akorda pjesmi Ibro Dirka - Uvodni solo? Upiši akord u tražilicu i saznaj!

Traženi akord će se prikazati ovdje

Od istog izvođača

Pregledano 2187 puta
Pregledano 3097 puta
Pregledano 7296 puta
Pregledano 911 puta
Pregledano 54226 puta
Trebaš ritam za ovu pjesmu? Pronađi ga ovdje
Akordi/Tabovi:
-----------------------------------------------------------------------------------------------
------------------------------------------------------------------------15-v13-----------------
----12-14/16-16-16-16-16-14-12-14-12----12-14-14-14-b14-14-14-r14-14-12------------------------
-12----------------------------------14--------------------------------------------------------
-----------------------------------------------------------------------------------------------
-----------------------------------------------------------------------------------------------

-----------------------------------------------------------------------------------------------
-----------------------------------------------------------------------------------------------
-14/16-16-16-16-16-14-12-14-12----12-14-14-14-b14-14-14-r14-14-12-11-v12------------------------
-------------------------------14--------------------------------------------------------------
-----------------------------------------------------------------------------------------------
-----------------------------------------------------------------------------------------------

Moze svirati na vise mjesta na gitari ja ga sviram ovdje jer mi najbolje zvuci :D
kao npr.
--------- . . .
---8-10-- . . .
-7------- . . .
--------- . . .
--------- . . .
--------- . . .
Komentari

Zeleni_Zub kaže:

Ljudi ovo nije kako treba, moja greska :)
Postavit cu novi tab

23-09-2010 22:07

Zeleni_Zub kaže:

Ustvari mozda i jest tacno :S

26-09-2010 18:43