Prljavo Kazalište

Marina - Prebiranje

by: KraljTomislav

Pronađi akord!

Ne znaš kako odsvirati neki od akorda pjesmi Marina - Prebiranje? Upiši akord u tražilicu i saznaj!

Traženi akord će se prikazati ovdje

Od istog izvođača

Pregledano 6935 puta
Pregledano 142688 puta
Pregledano 112892 puta
Pregledano 12698 puta
Pregledano 6239 puta
Trebaš ritam za ovu pjesmu? Pronađi ga ovdje
Ovo je vrlo jednostavna pjesma za svirati na "normalan" način, ako vam to ne ide imate ODLIČAN video tutor koji je napravio Andrea
E sad, ako vam ti akordi nisu dosta i želite se malo više uživiti u samu pjesmu, evo vam moje improvizacije [neš ti improvzacije :D]
Akordi/Tabovi:
           C                G                 Am               F       G
e-------------------|-----------------|------------------|----------------------/
H------1-----1------|---3-----3-------|---1-----1--------|-----1-------3--------/
G--------0-----0--0-|-----0-----0---0-|-----2-----2---2--|-----2-------4--------/
D----------2----2---|-------0-----0---|-------2-----2----|---3-------5----------/
A----3--------------|-----------------|-0----------------|----------------------/
E-------------------|-3---------------|------------------|-1-------3------------/


Dakle, samo prebirete ovim redosljedom:
[b]BAS ŽICA 2-3-4-2-3-4-3[/b]

[b]Ovo gore svirate kroz sljedeće stihove: [/b]

Na bozicno jutro
sneno i mutno
u kaputu ocevom
malcice prevelikom

[b]
Međutim, kad dođe:[/b]

dosao sam na njena vrata
da joj kazem bas da odlazim


Svirate:
             
           C                G                 Am                    F               G               C
e-------------------|-----------------|------------------|------------------|----------------|--0--^----------/
H------1-----1------|---3-----3-------|---1-----1--------|----1-----1-------|---3-----3------|--1--|----------/
G--------0-----0--0-|-----0-----0---0-|-----2-----2---2--|------2-----2-----|-----4-----4----|--0--|----------/
D----------2----2---|-------0-----0---|-------2-----2----|--------3-----3---|-------5-----5--|--2--|----------/
A----3--------------|-----------------|-0----------------|------------------|----------------|--3--|----------/
E-------------------|-3---------------|------------------|-1----------------|-3--------------|--x--|----------/

Ako vam se ne sviđa kraj, slobodno mi recite da editiram, jer meni zvuči ok.
Ako tražite u komentarima stiže video lekcija \o/
Komentari

Peniko kaže:

To madafaka! Svaka cast

25-01-2011 15:02