Zoran Predin

Ritam lelujave bluze

by: xsara

Pronađi akord!

Ne znaš kako odsvirati neki od akorda pjesmi Ritam lelujave bluze? Upiši akord u tražilicu i saznaj!

Traženi akord će se prikazati ovdje

Od istog izvođača

Pregledano 6231 puta
Pregledano 4499 puta
Pregledano 9820 puta
Pregledano 2002 puta
Pregledano 308 puta
Trebaš ritam za ovu pjesmu? Pronađi ga ovdje
Akordi/Tabovi:
Zoran Predin
Ritam lelujave bluze
(Obrada pjesme:Pražen krompir)

http://mp3shopcart.com/flash_player/flash_track.php?type=1&id=8050344

Tuning:Std(eBGDAE)

INTRO
(Glissando=slide od prvog polja:)
  C7/F7   
e|-3/8~~~~~~|
B|-1/6~~~~~~|
G|-3/8~~~~~~|
D|-2/7~~~~~~|
A|----------|
E|----------|
   Bbm         D#m         G#             C#       F7
e|----------------------------------------------------|
B|----------------------------------------6-6-6-------|
G|-6-6-6-5-6-6-6-6-6-5-6-6-6-5-5-5-5-5-6-8-----8-6-5-5|
D|--------8-----------8-------------------------------|
A|----------------------------------------------------|
E|----------------------------------------------------|
   Bbm            D#m              F7             Bbm      F7          Bbm
e|-6-6-4---------------------------------------------6-9-8-5-6-8-5-6-8-6~~|
B|------7-6-6-6~~-7-7-7-6-7-4~-2h4------------------6---------------------|
G|---------------------------------5-5-5~-5-5h6-5--6----------------------|
D|------------------------------------------------8-----------------------|
A|------------------------------------------------------------------------|
E|------------------------------------------------------------------------|

Verse 1
Bbm
Srdačan pozdrav,šefice moja
D#m
Šalje ti frajer iz školskih dana
G#
sjeti se face bledunjavih boja
C#                F7
razmaženog klinca rahitičnih mana.
Bbm
Tražeći zdravlje kod vas na selu
D#m
pili smo rosu jutarnjih trava
G#
i znali smo bosi prstima gnječiti
C#              F7
još topla govna začuđenih krava.
Bbm-Bbmadd9        D#m-D#m6
Prošle su godine i crna sudbina
G#-G#add9          C#        F7
nas ponovo spoji u tvom restoranu
Bbm-Bbmadd9    D#m-D#m6
šeficu kuhinje,mene Predina
G#-G#add9         C#    F7     
u besanoj noći uz vino i hranu.

CHORUS
F#               G#
Sjećam se mirisa prepunih dinja
  C#             Bbm       
u ritmu lelujave bluze
  F#                 G#
i kako sam poljupcem popio suze
C#               F7               
koje su znale da dolazi kraj.
F#               G#
Gutam tvoj miris za sva vremena
   C#                 Bbm 
uz urlanje brodskih sirena.
F#                G#
Purica s mlincima miriše slasno
C#                F7
i meni je postalo jasno:
                     Bbm
za nas nije nikad prekasno.

SOLO(Bbm-D#m-G#-C#-F7-Bbm-D#m-F7-Bbm-F7-Bm)

Verse 2
Bm-Bmadd9
Još uvijek sam mornar na brodu Ljubljana
Em-Em6
u Jaffi tovarimo brdo banana
A-Aadd9
izluđen od riže na tisuću načina
D            F#7
bolujem od egzotičnih začina.
Bm-Bmadd9
Mirisi bude sjećanja stara
Em-Em6
duša već diže čašu u ruci,
A-Aadd9
dajem ti sve da me uzmeš mornara
D                   F#7
za pravljenje djece u bračnoj luci.

CHORUS
G                A
Sjećam se mirisa prepunih dinja
  D              Bm
u ritmu lelujave bluze
  G                  A
i kako sam poljupcem popio suze
D                F#7
koje su znale da dolazi kraj.
G                A
Gutam tvoj miris za sva vremena
   D                  Bm-Bmadd9
uz urlanje brodskih sirena.
G                 A
Purica s mlincima miriše slasno
D                 F#7
i meni je postalo jasno:
                     Bm
za nas nije nikad prekasno.

Bm-Em-A-D-F#7
Laj laj laj laj...
Bm-Em-F#7-Bm
Laj laj laj laj...2X
Komentari
Još nema komentara