En Face

Sve se mijenja

by: xsara

Pronađi akord!

Ne znaš kako odsvirati neki od akorda pjesmi Sve se mijenja? Upiši akord u tražilicu i saznaj!

Traženi akord će se prikazati ovdje

Od istog izvođača

Pregledano 3897 puta
Pregledano 20342 puta
Pregledano 5084 puta
Pregledano 6818 puta
Trebaš ritam za ovu pjesmu? Pronađi ga ovdje
Akordi/Tabovi:
En Face
Sve se mijenja
(Album:Sve se mijenja,1999.)

Tuning:Std(eBGDAE)

Intro
   G       Eb G       Eb  Em
e|-7h8p7---6~~7h8p7---11~~12~~|
B|------8~~--------8~~--------|
G|----------------------------|
Em              D           C                G
Sve se mijenja, ničeg nema, al' ljudi još su tu
   G             Em     
e|---------------0-|
B|---------------0-|
G|---------------0-|
D|---------------2-|
A|-0-2-0-2-3-2-0-2-|
E|---------------0-|
Em         D              C           G
Malo nade, puno riječi, a smijeha niotkud
Am                           C                 
Hoće li još koji put školska zvona zvoniti
G                     C
Staro dobro društvo okupiti
     Am       D               G
Samo slike iz albuma i poneki glas

Em              D           C             G
Sve se mijenja, djeca šute, a starci pričaju
Em           D            C                 G
Sve se vidi, sve se čuje, a svijet se pravi lud

Am                           C                 
Hoće li još koji put školska zvona zvoniti
G                     C
Staro dobro društvo okupiti
     Am       D               G
Samo slike iz albuma i poneki glas

Chorus:
         D       Em      Am         C
Da živim sto godina neću nikad čuti to što želim
D       Em      Am         C           G
Sto godina neću nikad čuti riječi iskrene

  G       Eb G       Eb  Em
e|-7h8p7---6~~7h8p7---11~~12~~|
B|------8~~--------8~~--------|
G|----------------------------|

SOLO: 
   2:00                          2:10
   Em     D      C      G
e|-----0-0----0-0---0-0-0-3-----3-|
B|----0---0-3----0h1-3----0-------|
G|-0h2-----2-2-------------0-2/4--|
D|--------------------------------|
A|--------------------------------|
E|--------------------------------|
  2:10                                   2:19
   Em     D      C             G
e|-----0----0-----0-0-3-3h5p3--3-----------|
B|----0---3--3-3-3-3---------3-3--3h5p3--3-|
G|-0h2----2---2----------------4--4----4-4-|
D|-----------------------------------------|

Am                           C                 
Hoće li još koji put školska zvona zvoniti
G                     C
Staro dobro društvo okupiti
     Am       D               G
Samo slike iz albuma i poneki glas

Chorus:
         D       Em      Am         C
Da živim sto godina neću nikad čuti to što želim
D       Em      Am         C           G
Sto godina neću nikad čuti riječi iskrene

Outro=Intro 2X
             G
Riječi iskrene....
Komentari

uljar kaže:

ispravak:

D Em Am Cm G
Sto godina neću nikad čuti riječi iskrene

i onda nakon toga
G Eb G Cm Em

14-04-2014 23:40