En Face

Marianne

by: xsara

Pronađi akord!

Ne znaš kako odsvirati neki od akorda pjesmi Marianne? Upiši akord u tražilicu i saznaj!

Traženi akord će se prikazati ovdje

Od istog izvođača

Pregledano 3838 puta
Pregledano 6758 puta
Pregledano 5012 puta
Pregledano 20261 puta
Trebaš ritam za ovu pjesmu? Pronađi ga ovdje
Akordi/Tabovi:
En Face
Marianne

(Album:U krilu mjeseca,1997.)

Tuning:Std(eBGDAE)

Intro
    C       E       C       B7
e|--------3-------7-------3---------2-4-5-7-|
B|----3-5-----7-9-----3-5-----2-4-5---------|
G|--5-------9-------5-------4---------------|
D|------------------------------------------|
A|------------------------------------------|
E|------------------------------------------|

E             G#m
Čujem sat kao teški vlak
C#m
Volim kad me budiš
F#m   A           E
Dahom ljubiš me u vrat
E                G#m
Slušam kišu kako bubnja grad
C#m               F#m
Miris noći negdje drugdje
      A
Nekom sklapa oči

C                    E
Zadrhtim jer znam da gledaš me,
C                     B7
Sklopim ruke, znam da trebam te

E            G#m       
Pogled traži noć za dan
C#m
Smjehom zoveš sunce
F#m     A         E
Gutljaj kave ispijam
E             G#m
Želim krasti još poneki sat
C#m
Tebe ljute vijesti,
F#m     A         
Ja još lebdim, sanjam

C                    E
Zadrhtim jer znam da gledaš me
C                     B7
Sklopim ruke, znam da trebam te

E      G#m
O, Marianne
B               A
Pričaš nešto a ja tako snen
E      G#m
O, Marianne
B            A
Tako živa, a ja tako lijen

Čujem sat kao teški vlak
Volim kad me budiš
Dahom ljubiš me u vrat

Slušam kišu kako bubnja grad
Miris noći negdje drugdje
Nekom sklapa oči

Zadrhtim jer znam da gledaš me,
Sklopim ruke, znam da trebam te

O, Marianne
Pričaš nešto a ja tako snen
O, Marianne
Tako živa, a ja tako lijen 

SOLO...otprilike:

  2:23                       2:27
  G                 Bm
e|---------------------------|
B|--------------------/8-----|
G|----------------------7-9--|
D|-----/9----7----7-9~-----9~|
A|-/10-/10-10--10------------|
E|---------------------------|
 
   2:28                                 2:33
   Em                  Am7       Bm7   C
e|------------------------3----5----7----8~|
B|--/8p7-----------------------------------|
G|-------9-7-----------3/4--4/5--5/7--7/9--|
D|-9---------10-9-7------------------------|
A|------------------10---------------------|
E|-----------------------------------------|
   2:34                   2:38
   G        Em
e|---------------------------|
B|-8-8p7---------------------|
G|-7----7-7-7h9p7---7--------|
D|----------------9---9-7----|
A|------------------------10-|
E|---------------------------|
   2:38                               2:43
   G               Am      C
e|--------------------------------------|
B|---------------8----------------------|
G|-----------7-9----7/9-7-------7-------|
D|-----7-7/9--------------9-7h9---9-7---|
A|-/10--------------------------------10|
E|--------------------------------------|

   2:43                               2:48
  B7                                  E
e|--------------------------------------|
B|----------7-----------------10--------|
G|------6b8---8p6---/8-8-9b11----8-11-9-|
D|-/9-9-----------9-------------------9-|
A|--------------------------------------|
E|--------------------------------------|

O, Marianne
Pričaš nešto a ja tako snen
O, Marianne
Tako živa, a ja tako lijen 
Komentari
Još nema komentara