Nina Romić

Daljine

by: xsara

Pronađi akord!

Ne znaš kako odsvirati neki od akorda pjesmi Daljine? Upiši akord u tražilicu i saznaj!

Traženi akord će se prikazati ovdje

Od istog izvođača

Pregledano 3788 puta
Pregledano 1581 puta
Pregledano 2837 puta
Trebaš ritam za ovu pjesmu? Pronađi ga ovdje
Akordi/Tabovi:
Nina Romić
Daljine
(Album:Daljine,2010.)

Tuning:Std(eBGDAE)
.............................................
Capodaster na drugom polju!(capo on 2nd fret)
.............................................
Intro-tema kroz cijelu pjesmu F#m-D ,fingerstyle(sa manjim varijacijama):
  Em           C              Em        C           
e|----0-----0----0-----------|----0---0---0---------|
B|----0-----0----1------1--0-|----0---0---1----1--0-|
G|--0---0---0----0------0--0-|--0-0---0---0----0--0-|
D|--------0---------0h2------|------0-------0h2-----|
A|-------------3----------2--|----------3--------2--|
E|-0-------------------------|-0--------------------|
U tvom toplom gradu
sunce stvara zlato
i onu davnu sreću
kao onda kada bio si mlad

A u mome sivom
sama stojim ja
i sunčan pogled s petog kata
ali samo svaki treći dan,svaki treći dan

Solo-tema:
e|-----------------------------|-----------------------------|
B|----0~----0~----0~------1--0-|----0~----0~----0~------1--0-|
G|--2-3p2-2-3p2-2-3p2-----0--0-|--2-3p2-2-3p2-2-3p2-----0--0-|
D|--------------------0h2------|--------------------0h2------|
A|--------------------------2--|--------------------------2--|
E|-0-----0-----0---------------|-0-----0-----0---------------|

Kada daljine pričat bi mogle
tada na uho šapnule bi
da si moj,od davnina da si moj
Kada daljine pričat bi mogle
tada na uho šapnule bi
da si moj,da si moj

Stotinama kilometara
naša srca kucaju
jednako kao da ne postoji
sve ovo.

Kada daljine pričat bi mogle
tada na uho šapnule bi
da si moj,od davnina da si moj
Kada daljine pričat bi mogle
tada na uho šapnule bi
da si moj,da si moj

Tada daljine rekle bi tebi
na uho tvoje šapnule bi
ti si moj,ti si moj
ti si moj,ti si moj,ti si moj
Komentari

littlewing2 kaže:

Dobro je znati da još netko sluša Ninu Romić. Dobar tab xsara!!

23-04-2010 22:32