Parni Valjak

To sam stvarno ja-SOLO I LICKOVI

by: xsara

Pronađi akord!

Ne znaš kako odsvirati neki od akorda pjesmi To sam stvarno ja-SOLO I LICKOVI? Upiši akord u tražilicu i saznaj!

Traženi akord će se prikazati ovdje

Od istog izvođača

Pregledano 109454 puta
Pregledano 9937 puta
Pregledano 371 puta
Pregledano 3293 puta
Pregledano 7613 puta
Trebaš ritam za ovu pjesmu? Pronađi ga ovdje
Akordi/Tabovi:
Parni valjak
To sam stvarno ja-SOLO i lickovi

Tuning:Std(eBGDAE)
(Pa, nadam se da donekle štima...ispravite ako ima(a ima)grešaka...pitajte Brka)

Intro(2X)
  A        D        E       A           D           E          D
e|-------9-10-12-14-12-10p9-9---------9--9/10--9-----------------I
B|-10-12---10-------12-----10--10-12-10--9/10-10-10-9-10h12-9-10-I
G|--9------11-------13------9---9-------10/11-----9-9----------9-I
D|-11----------------------11--11-----------------------------11-I
A|---------------------------------------------------------------I
E|---------------------------------------------------------------I


Nakon prve strofe (od 1:01") Intro(1x)


  ..prvi put ljubila(1:18)...
e|---------------------------I
B|---------------------------I
G|---------------------------I
D|-------------------2-4-2/4-I
A|---------------------------I
E|---------------------------I
..nisi pitala tko sam stVarno ja(1:28)...
e|--------------------------------0----------I
B|--------------------------------0h2p0------I
G|--------------------------------------2-1--I
D|----------------------------------------4-2I
A|-------------------------------------------I
E|-------------------------------------------I

SOLO(1:55)
     D    E  A                     D         E A           D    E   A                   D    E               A
     (1:55)                                            2:05                        2:10                       2:16
e|---5-4-2-------------(---------)-/5-4-2h4p2--------------5-4-2-----------(-------)--------------------------------I
B|2h3-----5~-3-2-3-5---(2p0------)-----------5-3-2-3-5~-2h3-----5~3-2-3-5--(0h2----)------3-2-----------------------I
G|------------------2~~(---h2p1h2)---------------------------------------2-(---2---)----2----4~4/6\4-2h4p2p1h2h4p2~~I
D|---------------------(---------)-----------------------------------------(----4-2)-2h4-4--------------------------I
A|---------------------(---------)-----------------------------------------(-------)--------------------------------I
E|---------------------(---------)-----------------------------------------(-------)--------------------------------I

                           SLIDE..................................................
...bi opet ponovo(2:24)....kad bih mogao(2:28)...         ...sve ove dane(2:33).....bih ponovio(2:38)
e|-----------------------I--------------/4/7/12-10/12-7/9~~I--12/14-12-----------I-------------------------I
B|-----------------12b14-I---------------------------------I----------14\12-10~~-I------------0-0-0~~~~~~--I
G|-----------------------I---------------------------------I---------------------I------------1-2-4/6\4\2--I
D|-----------------------I---------------------------------I---------------------I-----------------------2-I
A|-----------------------I---------------------------------I---------------------I-------------------------I
E|-----------------------I---------------------------------I---------------------I-------------------------I

OUTRO=INTRO(2X)
Komentari
Još nema komentara