Oliver Dragojević

Cesarica / finger /

by: z1her

Pronađi akord!

Ne znaš kako odsvirati neki od akorda pjesmi Cesarica / finger /? Upiši akord u tražilicu i saznaj!

Traženi akord će se prikazati ovdje

Od istog izvođača

Pregledano 559 puta
Pregledano 8549 puta
Pregledano 5669 puta
Pregledano 67435 puta
Pregledano 7853 puta
Trebaš ritam za ovu pjesmu? Pronađi ga ovdje
Akordi/Tabovi:
________________________________________________________________________________________F________G__

e---------------------------------------------0-----------------------------------------1---------3-
H------1--0--0-----0--1---0--0--1--3--3--1--3-----------------------------------------1---------3---
G-0--0----------2----------------------------------2--2--2--2--2--0--0--------------2---------0---
D------------------------------------------------------------------------3--2------------------------
A---------------------------------------------------------------------------------3------------------
E------------------------------------------------------------------------------------------3--------



e------------------------------------------0---1--1--1--0--0------------0----------------1---------3-
H-------1--0--0-----0--1--0--0--1-3-3-1-3---------------------3--3--1--1---------------1---------3---
G-0--0-----------2------------------------------------------------------0------------2---------0-----
D----------------------------------------------------------------------------------------------------
A---------------------------------------------------------------------------------3------------------
E-------------------------------------------------------------------------------------------3--------



e-0--0--0--1--0----------------------------------------0--1--0--0--------
H---------------3---1--0--3--1--0--1-----0--0--0--1--3-------------3--1--
G------------------------------------2-----------------------------------
D------------------------------------------------------------------------
A------------------------------------------------------------------------
E------------------------------------------------------------------------



e--0--0--0--1--0--------------------------1--3--0---------0--------------
H----------------3--1--0--3--1--0--1--1------------3--1---2--------------
G---------------------------------------------------------0--------------
D---------------------------------------------------------2--------------
A---------------------------------------------------------3--------------
E---------------------------------------------------------0--------------
Komentari
Još nema komentara