Ramones

Rock 'n Roll High School

by: Guitar360

Pronađi akord!

Ne znaš kako odsvirati neki od akorda pjesmi Rock 'n Roll High School? Upiši akord u tražilicu i saznaj!

Traženi akord će se prikazati ovdje

Od istog izvođača

Pregledano 2599 puta
Pregledano 4051 puta
Pregledano 1922 puta
Pregledano 723 puta
Pregledano 2017 puta
Trebaš ritam za ovu pjesmu? Pronađi ga ovdje
Akordi/Tabovi:
The Ramones - Rock 'n Roll High School

Fun and really simple punk song (aren't they all) Enjoy!

/= slide
^= vibrato
note: number of chord strums apporximated

Drum Intro

e---------------------------------------------------------------------------|
B---------------------------------------------------------------------------|
G----------------------5-5-5-5-5-5-5-5-5-5-5-5-5-5-5-5----------------------|
D--5-5-5-5--5-5-5-5----5-5-5-5-5-5-5-5-5-5-5-5-5-5-5-5----------------------|
A--5-5-5-5--5-5-5-5----3-3-3-3-3-3-3-3-3-3-3-3-3-3-3-3----------------------|
E--2/3-3-3--2/3-3-3---------------------------------------------------------|
                       Well I don't care about history

e---------------------------------------------------------------------------|
B---------------------------------------------------------------------------|
G-5-5-5-5-5-5-5-5-5-5-5-5-5-5-5-5-5-5---------------------------------------|
D-5-5-5-5-5-5-5-5-5-5-5-5-5-5-5-5-5-5---3-3-3-3-3-3-3-3-3-3-3-3-3-3-3-3-3-3-|
A-3-3-3-3-3-3-3-3-3-3-3-3-3-3-3-3-3-3---3-3-3-3-3-3-3-3-3-3-3-3-3-3-3-3-3-3-|
E---------------------------------------1-1-1-1-1-1-1-1-1-1-1-1-1-1-1-1-1-1-|
  Rock Rock rock 'n roll high school    Cuz that's not where I wanna be


e---------------------------------------------------------------------------|
B---------------------------------------------------------------------------|
G-5-5-5-5-5-5-5-5-5-5-5-5-5-5-5-5-5-5----2-2-2-2-2-2-2-2--------------------|
D-5-5-5-5-5-5-5-5-5-5-5-5-5-5-5-5-5-5----2-2-2-2-2-2-2-2-3-3-3-3-3-3-3-3----|
A-3-3-3-3-3-3-3-3-3-3-3-3-3-3-3-3-3-3----0-0-0-0-0-0-0-0-3-3-3-3-3-3-3-3----|
E--------------------------------------------------------1-1-1-1-1-1-1-1----|
  Rock Rock rock 'n roll high school     I just  wanna   have some kicks


e---------------------------------------------------------------------------|
B---------------------------------------------------------------------------|
G-2-2-2-2-2-2-2-2-----------------------5---5-------------------------------|
D-2-2-2-2-2-2-2-2-3-3-3-3-3-3-3-3-3-----5---5-----7----7-----3-3-3-3-3-3----|
A-0-0-0-0-0-0-0-0-3-3-3-3-3-3-3-3-3-----3---3-----7----7-----3-3-3-3-3-3----|
E-----------------1-1-1-1-1-1-1-1-1---------------5----5-----1-1-1-1-1-1----|
  I just wanna    get some chicks      rock rock  rock rock  rock 'n roll

e---------------------------------------------------------------------------|
B---------------------------------------------------------------------------|
G---------------------------------------------------------------------------|
D-5-5-5-5-5-5-5-5-5-5-5-5-5-5-5-5-5-5-5-5-----------------------------------|
A-5-5-5-5-5-5-5-5-5-5-5-5-5-5-5-5-5-5-5-5-----------------------------------|
E-3-3-3-3-3-3-3-3-3-3-3-3-3-3-3-3-3-3-3-3-----------------------------------|
  high school

e---------------------------------------------------------------------------|
B---------------------------------------------------------------------------|
G-5-5-5-5-5-5-5-5-5-5-5-5-5-5-5-5-5-5-5-5-5-5-5-5-5-5-5-5-------------------|
D-5-5-5-5-5-5-5-5-5-5-5-5-5-5-5-5-5-5-5-5-5-5-5-5-5-5-5-5-------------------|
A-3-3-3-3-3-3-3-3-3-3-3-3-3-3-3-3-3-3-3-3-3-3-3-3-3-3-3-3-------------------|
E---------------------------------------------------------------------------|
  Well the girls out there knock me out you know

e---------------------------------------------------------------------------|
B---------------------------------------------------------------------------|
G-5-5-5-5-5-5-5-5-5-5-5-5-5-5-5-5-5-5---------------------------------------|
D-5-5-5-5-5-5-5-5-5-5-5-5-5-5-5-5-5-5---3-3-3-3-3-3-3-3-3-3-3-3-3-3-3-3-3-3-|
A-3-3-3-3-3-3-3-3-3-3-3-3-3-3-3-3-3-3---3-3-3-3-3-3-3-3-3-3-3-3-3-3-3-3-3-3-|
E---------------------------------------1-1-1-1-1-1-1-1-1-1-1-1-1-1-1-1-1-1-|
  Rock Rock rock 'n roll high school    Cruisin around in my GTO

e---------------------------------------------------------------------------|
B---------------------------------------------------------------------------|
G-5-5-5-5-5-5-5-5-5-5-5-5-5-5-5-5-5-5--2-2-2-2-2-2-2-2-2-2-2-2-2------------|
D-5-5-5-5-5-5-5-5-5-5-5-5-5-5-5-5-5-5--2-2-2-2-2-2-2-2-2-2-2-2-2--3-3-3-3-3-|
A-3-3-3-3-3-3-3-3-3-3-3-3-3-3-3-3-3-3--0-0-0-0-0-0-0-0-0-0-0-0-0--3-3-3-3-3-|
E-----------------------------------------------------------------1-1-1-1-1-|
  Rock Rock rock 'n roll high school   I hate the teachers and the principal

e---------------------------------------------------------------------------|
B---------------------------------------------------------------------------|
G-2-2-2-2-2-2-2-2-2-2-2-2---------------------------------------------------|
D-2-2-2-2-2-2-2-2-2-2-2-2--3-3-3-3-3-3-3------------------------------------|
A-0-0-0-0-0-0-0-0-0-0-0-0--3-3-3-3-3-3-3------------------------------------|
E--------------------------1-1-1-1-1-1-1------------------------------------|
  Don't wanna be taught to be no fool

e---------------------------------------------------------------------------|
B---------------------------------------------------------------------------|
G-5----5--------------------------------------------------------------------|
D-5----5-----7----7-----3--3--3--3---5-5-5-5-5-5----------------------------|
A-3----3-----7----7-----3--3--3--3---5-5-5-5-5-5-----(2X)-------------------|
E------------5----5-----1--1--1--1---3-3-3-3-3-3----------------------------|
  rock rock  rock rock  rock 'n roll high school

e------------------------|
B------------------------|
G-5-5-5-5-5--5-5-5-5-5---|
D-5-5-5-5-5--5-5-5-5-5---|
A-2/3-3-3-3--2/3-3-3-3---|
E------------------------|


e---------------------------------------------------------------------------|
B---------------------------------------------------------------------------|
G-----------------------------------5-5-5-5-5-5-5-5-5-5-5-5-5-5-5-5-5-5-5---|
D-5-5-5-5-5-5-5-5-5-5-5-5-5-5-5-5-5-5-5-5-5-5-5-5-5-5-5-5-5-5-5-5-5-5-5-5---|
A-5-5-5-5-5-5-5-5-5-5-5-5-5-5-5-5-5-3-3-3-3-3-3-3-3-3-3-3-3-3-3-3-3-3-3-3---|
E-3-3-3-3-3-3-3-3-3-3-3-3-3-3-3-3-3-----------------------------------------|
  Fun Fun rock 'n roll high school  Fun Fun rock 'n roll high school

e---------------------------------------------------------------------------|
B---------------------------------------------------------------------------|
G-----------------------------------5-5-5-5-5-5-5-5-5-5-5-------------------|
D-5-5-5-5-5-5-5-5-5-5-5-5-5-5-5-5-5-5-5-5-5-5-5-5-5-5-5-5-3-3-3-3-3-3-3-3-3-|
A-5-5-5-5-5-5-5-5-5-5-5-5-5-5-5-5-5-3-3-3-3-3-3-3-3-3-3-3-3-3-3-3-3-3-3-3-3-|
E-3-3-3-3-3-3-3-3-3-3-3-3-3-3-3-3-3-----------------------1-1-1-1-1-1-1-1-1-|
  Fun Fun rock 'n roll high school  Fun Fun ooohh baby   Fun Fun ooohh baby


e-------------------------[----------------------(2X)----------------------]
B-------------------------[------------------------------------------------]
G-5-5-5-5-5---------------[-5---5------------------------------------------]
D-5-5-5-5-5-7-7-7-7-7-7---[-5---5------7----7-----3--3--3--3---5-5-5-5-5-5-]
A-3-3-3-3-3-7-7-7-7-7-7---[-3---3------7----7-----3--3--3--3---5-5-5-5-5-5-]
E-----------5-5-5-5-5-5---[------------5----5-----1--1--1--1---3-3-3-3-3-3-]
  Fun Fuuuuun  Fun Fun      rock rock  rock rock  rock 'n roll high school

KEY change from C to D

e---------------------------------------------------------------------------|
B---------------------------------------------------------------------------|
D---------------------------------------------------------------------------|
G-7----7--------------------------------------------------------------------|
D-7----7-----9----9------5-5-5-5-5-5--7-7-7-7-7-7-7-------------------------|
A-5----5-----9----9------5-5-5-5-5-5--7-7-7-7-7-7-7-------------------------|
E------------7----7------3-3-3-3-3-3--5-5-5-5-5-5-5-------------------------|
  rock rock  rock rock   rock 'n roll high school

Drum intro


e---------------------------------------------------------------------------|
B---------------------------------------------------------------------------|
G-7-7-7-7-7-7-7-7-7-7-7-7-7-7-7-7-7-7-7-7-7-7-7-7-7-7-7-7-7-7-7-7-----------|
D-7-7-7-7-7-7-7-7-7-7-7-7-7-7-7-7-7-7-7-7-7-7-7-7-7-7-7-7-7-7-7-7-----------|
A-5-5-5-5-5-5-5-5-5-5-5-5-5-5-5-5-5-5-5-5-5-5-5-5-5-5-5-5-5-5-5-5-----------|
E---------------------------------------------------------------------------|
Well I don't care about history   Rock Rock rock 'n roll high school

e---------------------------------------------------------------------------|
B---------------------------------------------------------------------------|
G-------------------------------------7-7-7-7-7-7-7-7-7-7-7-7-7-7-7-7-7-----|
D-5-5-5-5-5-5-5-5-5-5-5-5-5-5-5-5-5---7-7-7-7-7-7-7-7-7-7-7-7-7-7-7-7-7-----|
A-5-5-5-5-5-5-5-5-5-5-5-5-5-5-5-5-5---5-5-5-5-5-5-5-5-5-5-5-5-5-5-5-5-5-----|
E-3-3-3-3-3-3-3-3-3-3-3-3-3-3-3-3-3-----------------------------------------|
  Cuz that's not where I wanna be     Rock Rock rock 'n roll high school


e---------------------------------------------------------------------------|
B---------------------------------------------------------------------------|
G-4-4-4-4-4-4-------------------4-4-4-4-4-4---------------------------------|
D-4-4-4-4-4-4--5-5-5-5-5-5-5-5--4-4-4-4-4-4--5-5-5-5-5-5-5-5----------------|
A-2-2-2-2-2-2--5-5-5-5-5-5-5-5--2-2-2-2-2-2--5-5-5-5-5-5-5-5----------------|
E--------------3-3-3-3-3-3-3-3---------------3-3-3-3-3-3-3-3----------------|
  I just wanna have some kicks  I just wanna get some chicks


e---------------------------------------------------------------------------|
B---------------------------------------------------------------------------|
G-7----7------------------------------------------------7-7-7-7-7-7-7-7-7-7-|
D-7----7-----9----9-----5-5-5-5-5-5--7-7-7-7-7-7--------7-7-7-7-7-7-7-7-7-7-|
A-5----5-----9----9-----5-5-5-5-5-5--7-7-7-7-7-7--(2X)--4/5-5-5-5-4/5-5-5-5-|
E------------7----7-----3-3-3-3-3-3--5-5-5-5-5-5----------------------------|
  rock rock  rock rock  rock 'n roll high school

e---------------------------------------------------------------------------|
B---------------------------------------------------------------------------|
G------------------------------------7-7-7-7-7-7-7-7-7-7-7-7-7-7-7-7-7------|
D-7-7-7-7-7-7-7-7-7-7-7-7-7-7-7-7-7--7-7-7-7-7-7-7-7-7-7-7-7-7-7-7-7-7------|
A-7-7-7-7-7-7-7-7-7-7-7-7-7-7-7-7-7--5-5-5-5-5-5-5-5-5-5-5-5-5-5-5-5-5------|
E-5-5-5-5-5-5-5-5-5-5-5-5-5-5-5-5-5-----------------------------------------|
  Fun Fun rock 'n roll high school   Fun Fun rock 'n roll high school

e---------------------------------------------------------------------------|
B---------------------------------------------------------------------------|
G---------------------------------------------------------------------------|
D-7-7-7-7-7-7-7-7-7-7-7-7-7-7-7-7-7-7---------------------------------------|
A-7-7-7-7-7-7-7-7-7-7-7-7-7-7-7-7-7-7---------------------------------------|
E-5-5-5-5-5-5-5-5-5-5-5-5-5-5-5-5-5-5---------------------------------------|
  Fun Fun rock 'n roll high school

e---------------------------------------------------------------------------|
B---------------------------------------------------------------------------|
G-7-7-7-7-7-7-7-7-7-7------------------------7-7-7-7-7----------------------|
D-7-7-7-7-7-7-7-7-7-7--5-5-5-5-5-5-5-5-5-5---7-7-7-7-7-9-9-9-9-9-9----------|
A-5-5-5-5-5-5-5-5-5-5--5-5-5-5-5-5-5-5-5-5---5-5-5-5-5-9-9-9-9-9-9----------|
E----------------------3-3-3-3-3-3-3-3-3-3-------------7-7-7-7-7-7----------|
  Fun Fun ohhh baby    Fun Fun ohhh baby     Fun Fuunnun Fun Fun


e---------------------------------------------------------------------------|
B-----------------------------------------------------------------^^^^------|
G-7----7------------------------------------------------------7----7*-------|
D-7----7------9----9-----5---5---5------7-7-7-7-7-7-----------7-------------|
A-5----5------9----9-----5---5---5------7-7-7-7-7-7-(4X)------5-------------|
E-------------7----7-----3---3---3------5-5-5-5-5-5-------------------------|
  rock rock   rock rock  rock 'n roll   high school

*druga gitara
Komentari
Još nema komentara