Ramones

Pet Sematary

by: Guitar360

Pronađi akord!

Ne znaš kako odsvirati neki od akorda pjesmi Pet Sematary? Upiši akord u tražilicu i saznaj!

Traženi akord će se prikazati ovdje

Od istog izvođača

Pregledano 775 puta
Pregledano 2627 puta
Pregledano 2085 puta
Pregledano 2238 puta
Pregledano 2008 puta
Trebaš ritam za ovu pjesmu? Pronađi ga ovdje
Akordi/Tabovi:
Ramones -  Pet Sematary


E |---------------------|
H |---3-------1-----1---|
G |---------0-----2-----|
D |-0---0-2-----3-----3-|
A |---------------------|
E |---------------------|

E |---------------------|
H |---3-------1-----1---|
G |---------0-----2-----|
D |-0---0-2-----3-----3-|
A |---------------------|
E |---------------------|


Under the arc of a weather stain boards
E |---------------------|
H |---3-------1-----1---|
G |---------0-----2-----|
D |-0---0-2-----3-----3-|
A |---------------------|
E |---------------------|


Ancient goblins, and warlords
E |---------------------|
H |---3-------1-----1---|
G |---------0-----2-----|
D |-0---0-2-----3-----3-|
A |---------------------|
E |---------------------|


Come out of the ground, not making a sound
E |---------------------|
H |---3-------1-----1---|
G |---------0-----2-----|
D |-0---0-2-----3-----3-|
A |---------------------|
E |---------------------|


The smell of death is all around.
E |---------------------|
H |---3-------1-----1---|
G |---------0-----2-----|
D |-0---0-2-----3-----3-|
A |---------------------|
E |---------------------|


And the night when the cold wind blows, no one cares, nobody
E |-----------------------------------------------------------------|
H |-----------------------------------------------------------------|
G |-----------------------------------------------------------------|
D |-5-5-5-5-5-5-5-5-7-7-7-7-7-7-7-7-5-5-5-5-5-5-5-5-7-7-7-7-7-7-7-7-|
A |-3-3-3-3-3-3-3-3-5-5-5-5-5-5-5-5-3-3-3-3-3-3-3-3-5-5-5-5-5-5-5-5-|
E |-----------------------------------------------------------------|


knows.
E |---------------------|
H |---------------------|
G |---------------------|
D |-3-3-3-3-3-3-3-3-5-5-|
A |-1-1-1-1-1-1-1-1-3-3-|
E |---------------------|


I dont wanna be buried in a pet sematary, I dont want to live my life again.
E |-----------------------------------------------------------------|-----|
H |-----------------------------------------------------------------|-----|
G |-----------------------------------------------------------------|-----|
D |-7-7-7-7-7-7-7-7-----------------5-5-5-5-5-5-5-5-3-3-3-3-3-3-3-3-|-5-5-|
A |-5-5-5-5-5-5-5-5-3-3-3-3-3-3-3-3-3-3-3-3-3-3-3-3-1-1-1-1-1-1-1-1-|-3-3-|
E |-----------------1-1-1-1-1-1-1-1---------------------------------|-----|


I don't wanna be buried in a pet sematary, I don't want to
E |-----------------------------------------------------------------|
H |-----------------------------------------------------------------|
G |-----------------------------------------------------------------|
D |-7-7-7-7-7-7-7-7-----------------5-5-5-5-5-5-5-5-3-3-3-3-3-3-3-3-|
A |-5-5-5-5-5-5-5-5-3-3-3-3-3-3-3-3-3-3-3-3-3-3-3-3-1-1-1-1-1-1-1-1-|
E |-----------------1-1-1-1-1-1-1-1---------------------------------|


live my life again.
E |-----------------|
H |-----------------|
G |-----------------|
D |-5-5-5-5-5-5-5-5-|
A |-3-3-3-3-3-3-3-3-|
E |-----------------|


Follow Victor to the sacred place.
E |---------------------|
H |---3-------1-----1---|
G |---------0-----2-----|
D |-0---0-2-----3-----3-|
A |---------------------|
E |---------------------|


This ain't a dream, I cant escape.
E |---------------------|
H |---3-------1-----1---|
G |---------0-----2-----|
D |-0---0-2-----3-----3-|
A |---------------------|
E |---------------------|


Molars and fangs, the clicking of bones,
E |---------------------|
H |---3-------1-----1---|
G |---------0-----2-----|
D |-0---0-2-----3-----3-|
A |---------------------|
E |---------------------|


spirits moaning among the tombstones.
E |---------------------|
H |---3-------1-----1---|
G |---------0-----2-----|
D |-0---0-2-----3-----3-|
A |---------------------|
E |---------------------|


And the night, when the moon is bright, someone cries, something
E |-----------------------------------------------------------------|
H |-----------------------------------------------------------------|
G |-----------------------------------------------------------------|
D |-5-5-5-5-5-5-5-5-7-7-7-7-7-7-7-7-5-5-5-5-5-5-5-5-7-7-7-7-7-7-7-7-|
A |-3-3-3-3-3-3-3-3-5-5-5-5-5-5-5-5-3-3-3-3-3-3-3-3-5-5-5-5-5-5-5-5-|
E |-----------------------------------------------------------------|


ain't right.
E |---------------------|
H |---------------------|
G |---------------------|
D |-3-3-3-3-3-3-3-3-5-5-|
A |-1-1-1-1-1-1-1-1-3-3-|
E |---------------------|


I dont wanna be buried in a pet sematary, I dont want to live my life again.
E |-----------------------------------------------------------------|-----|
H |-----------------------------------------------------------------|-----|
G |-----------------------------------------------------------------|-----|
D |-7-7-7-7-7-7-7-7-----------------5-5-5-5-5-5-5-5-3-3-3-3-3-3-3-3-|-5-5-|
A |-5-5-5-5-5-5-5-5-3-3-3-3-3-3-3-3-3-3-3-3-3-3-3-3-1-1-1-1-1-1-1-1-|-3-3-|
E |-----------------1-1-1-1-1-1-1-1---------------------------------|-----|


I don't wanna be buried in a pet sematary, I don't want to
E |-----------------------------------------------------------------|
H |-----------------------------------------------------------------|
G |-----------------------------------------------------------------|
D |-7-7-7-7-7-7-7-7-----------------5-5-5-5-5-5-5-5-3-3-3-3-3-3-3-3-|
A |-5-5-5-5-5-5-5-5-3-3-3-3-3-3-3-3-3-3-3-3-3-3-3-3-1-1-1-1-1-1-1-1-|
E |-----------------1-1-1-1-1-1-1-1---------------------------------|


live my life again.
E |-----------------|
H |-----------------|
G |-----------------|
D |-5-5-5-5-5-5-5-5-|
A |-3-3-3-3-3-3-3-3-|
E |-----------------|

E |-------------------------------------|
H |-------------------------------------|
G |-------------------------------------|
D |-------------------------------7-5-3-|
A |1--5--5-7-8-1--1-1-1--3-3-3--3-------|
E |-------------------------------------|


The moon is full, the air is still.
E |---------------------|
H |---3-------1-----1---|
G |---------0-----2-----|
D |-0---0-2-----3-----3-|
A |---------------------|
E |---------------------|


All of the sudden I feel a chain.
E |---------------------|
H |---3-------1-----1---|
G |---------0-----2-----|
D |-0---0-2-----3-----3-|
A |---------------------|
E |---------------------|


Victor is grinning, flesh rotting away.
E |---------------------|
H |---3-------1-----1---|
G |---------0-----2-----|
D |-0---0-2-----3-----3-|
A |---------------------|
E |---------------------|


Skeletons dance, I curse this day.
E |---------------------|
H |---3-------1-----1---|
G |---------0-----2-----|
D |-0---0-2-----3-----3-|
A |---------------------|
E |---------------------|


And the night when the wolves cry out, listen close and you can hear
E |-----------------------------------------------------------------|
H |-----------------------------------------------------------------|
G |-----------------------------------------------------------------|
D |-5-5-5-5-5-5-5-5-7-7-7-7-7-7-7-7-5-5-5-5-5-5-5-5-7-7-7-7-7-7-7-7-|
A |-3-3-3-3-3-3-3-3-5-5-5-5-5-5-5-5-3-3-3-3-3-3-3-3-5-5-5-5-5-5-5-5-|
E |-----------------------------------------------------------------|


me shout.
E |---------------------|
H |---------------------|
G |---------------------|
D |-3-3-3-3-3-3-3-3-5-5-|
A |-1-1-1-1-1-1-1-1-3-3-|
E |---------------------|


I dont wanna be buried in a pet sematary, I dont want to live my life again.
E |-----------------------------------------------------------------|-----|
H |-----------------------------------------------------------------|-----|
G |-----------------------------------------------------------------|-----|
D |-7-7-7-7-7-7-7-7-----------------5-5-5-5-5-5-5-5-3-3-3-3-3-3-3-3-|-5-5-|
A |-5-5-5-5-5-5-5-5-3-3-3-3-3-3-3-3-3-3-3-3-3-3-3-3-1-1-1-1-1-1-1-1-|-3-3-|
E |-----------------1-1-1-1-1-1-1-1---------------------------------|-----|


I don't wanna be buried in a pet sematary, I don't want to
E |-----------------------------------------------------------------|
H |-----------------------------------------------------------------|
G |-----------------------------------------------------------------|
D |-7-7-7-7-7-7-7-7-----------------5-5-5-5-5-5-5-5-3-3-3-3-3-3-3-3-|
A |-5-5-5-5-5-5-5-5-3-3-3-3-3-3-3-3-3-3-3-3-3-3-3-3-1-1-1-1-1-1-1-1-|
E |-----------------1-1-1-1-1-1-1-1---------------------------------|


live my life again.
E |-----------------|
H |-----------------|
G |-----------------|
D |-5-5-5-5-5-5-5-5-|
A |-3-3-3-3-3-3-3-3-|
E |-----------------|


I don't want to live my life again, oh no no no... [This riff 'til the end.]
E |-----------------------------------------------------------------|
H |-----------------------------------------------------------------|
G |-----------------------------------------------------------------|
D |-7-7-7-7-7-7-7-7-5-5-5-5-5-5-5-5-3-3-3-3-3-3-3-3-5-5-5-5-5-5-5-5-|
A |-5-5-5-5-5-5-5-5-3-3-3-3-3-3-3-3-1-1-1-1-1-1-1-1-3-3-3-3-3-3-3-3-|
E |-----------------------------------------------------------------|
Komentari
Još nema komentara