Parni Valjak

Nakon Svih Godina

by:

Pronađi akord!

Ne znaš kako odsvirati neki od akorda pjesmi Nakon Svih Godina? Upiši akord u tražilicu i saznaj!

Traženi akord će se prikazati ovdje

Od istog izvođača

Pregledano 7648 puta
Pregledano 10186 puta
Pregledano 21005 puta
Pregledano 7951 puta
Pregledano 15895 puta
Trebaš ritam za ovu pjesmu? Pronađi ga ovdje
Akordi/Tabovi:
Intro: H H G# E G# (2x)

Glavna tema:
e|-----------------------------------------------------|
B|---------------7\9-----------------------------------|
G|------4---4~~~-----8--6b8r6-4---4--------4-6-b8r6~~--|
D|--4h6---6---------------------6----4-4-6-------------|
A|-----------------------------------------------------|
E|-----------------------------------------------------|


Verse: H H G# E F#

Ti znaš da znam da nisi tu,
I mada gola kraj mene ležiš.
Ti znaš da znam gdje si sad,
U mislima ti njemu bježiš.

Prechorus: E F# (2x)

Tišina glasna, ubija polako,
A kad je kraj, nikom nije lako.

Verse: H H G# E F#

Ne nisam ljut - razumijem,
I za dobro i za loše potrebno je dvoje.
A nema smisla zbrajati,
Sve grijehe moje i u grijehe tvoje.

Prechorus: E F# (2x)

Tišina glasna, ubija polako,
A kad je kraj, nikom nije lako.

Chorus: H H G# E F#

Nakon svih godina,
Ispili smo ljubav do dna.
Nakon svih godina,
Moram se pomirit sa tim, budi sretna s njim.

(Tema)

Verse: H H G# E F#

Ne nisam ljut, al' tužan sam,
Jer dio mene nestaje bez tebe.
I nisam ljut jer - sam sam kriv,
Koliko puta sam te gurnuo od sebe.
Komentari

jur@ kaže:

glavna tema ide malo drugačije

ovako 2x nakon 2x zavrsetak
E--------------------------------------------------I---------------------
H-----------------7~/9-----------------------------I-----------------------
G---------4---4~~------8-6b8r6-4---4~-4---4---8-6~-I-6b8r6-4-6-4~-------------
D----4-6----6--------------------6------6---6------I----------------------
A--------------------------------------------------I-----------------
E--------------------------------------------------I----------------

14-04-2010 02:23

jur@ kaže:

fak loše se vidi

14-04-2010 02:24

kemal369 kaže:

ovaj G# meni tu nikako nestoji...bolje zvuci kad je umjesto toga F#
nisam bas iskusan tolko da bas sad tu nest pametujem pa et sam pitam jel stvarno ide tako ili je to neka greska? inace sve ostalo je dobro ;)

07-05-2010 13:52

XSARA kaže:

Akordi/Tabovi:
Probaj akorde-osnovna šema:
B-Bmaj7-Abm-E-F#(a to je isto što i H-Hmaj7-Abm-E-F#)(Abm=G#m)

Uvodna tema:

    B            Bmaj7 Abm          E          F#
e|--------------------------------------------------|
B|---------------7/9--------------------------------|
G|------4---4~~~-------8--6b8r6-4---4-4-4--6b8r6/8--|
D|--4h6---6-----------------------6----6-6----------|
A|--------------------------------------------------|
E|--------------------------------------------------|
        B      Bmaj7 Abm          E          F#          B
e|----------------------------------------------------------|
B|-------------7/9------------------------------------------|
G|------4---4~-------8--6b8r6-4---4-4-4--6/8-6-6b8r6-4-6-4~~|
D|--4h6---6---------------------6----6-6--------------------|
A|----------------------------------------------------------|
E|----------------------------------------------------------|

07-05-2010 19:16

kemal369 kaže:

da,bolje zvuci kad je G#m....

09-05-2010 23:17

zwerkan kaže:

dali ima netko vremena i volje da mi napise tab sa solo ???

05-11-2010 15:18

djmax kaže:

Ide H F# G#m E F#

09-09-2013 01:12

solomun kaže:

XSARA !

/ ! ! / H D#m / G#m7 / E / F# / H D#m / G#m7 / E / F# / H pjev..

djmax=No

09-09-2013 13:18

XSARA kaže:

Solomon, imaš pravo...

11-09-2013 21:36

solomun kaže:

Ne solomon nego solomun!

12-09-2013 10:08

XSARA kaže:

A tako, ispričavam se...solomon,salomon,solomun, ....glavno da je mir

12-09-2013 12:43