Parni Valjak

U prolazu

by: nbedeko2

Pronađi akord!

Ne znaš kako odsvirati neki od akorda pjesmi U prolazu? Upiši akord u tražilicu i saznaj!

Traženi akord će se prikazati ovdje

Od istog izvođača

Pregledano 566263 puta
Pregledano 5083 puta
Pregledano 646 puta
Pregledano 38246 puta
Pregledano 13154 puta
Trebaš ritam za ovu pjesmu? Pronađi ga ovdje
Akordi/Tabovi:
E--------------7-------------------------------------------
B----7----10------10------------------------------7--------
G-9^---9^---9^-------9^ˇ-7---7~-----4-6---4~-6-6^---6^ˇ-4~-
D--------------------------9----4h6-----6------------------
A----------------------------------------------------------
E----------------------------------------------------------

E-----------------17---------------------------------------------------
B-17^-14^-----17^----14^ˇ-----17^-19-18-17-----------------------------
G---------16~-------------16~--------------19-18-16-----16----18^-16~--
D---------------------------------------------------/18----18----------
A----------------------------------------------------------------------
E----------------------------------------------------------------------

E--------------------------------------------------------------------------------
B-/12-12-/12-12---------------------------------------------10^ˇ~----------------
G-/11-11-/11-11-9^ˇ^ˇ-7~----------------------------11-9-11-------11-9-11--------
D------------------------9-9-7-----9-9-9p7-------9~-----------------------/9-7~--
A------------------------------9-7---------9-7-6---------------------------------
E--------------------------------------------------------------------------------

E-----------------------------------------14-14-14-------------17--------------------
B-15----12----------------------------17^----------17^˘-15-17^----17^˘-15h17p15------
G--------------14----11-------11-14^ˇ~-------------------------------------------16~-
D----14----14----14----12/13---------------------------------------------------------
A------------------------------------------------------------------------------------
E------------------------------------------------------------------------------------


Legenda:
^- bend up
ˇ- relase
~- vibrato
/X- slide up
X/X- slide
p- pull off
h- hammer on
Komentari
Još nema komentara