Ramones

California Sun

by: Guitar360

Pronađi akord!

Ne znaš kako odsvirati neki od akorda pjesmi California Sun? Upiši akord u tražilicu i saznaj!

Traženi akord će se prikazati ovdje

Od istog izvođača

Pregledano 2943 puta
Pregledano 999 puta
Pregledano 713 puta
Pregledano 2280 puta
Pregledano 877 puta
Trebaš ritam za ovu pjesmu? Pronađi ga ovdje
Akordi/Tabovi:
Ramones - California Sun

T|-----------------------------------------------------|
|-----------------------------------------------------|
A|-99999--------99999--------99999--------99999--------|
|-99999-55555--99999-55555--99999-55555--99999-55555--|
B|-77777-55555--77777-55555--77777-55555--77777-55555--|
|-------33333--------33333--------33333--------33333--|


T|----------------------------------|
|----------------------------------|
A|-99999--------------------999999--|
|-99999-1111111111---77-99-999999--|
B|-77777-1111111111---77-99-777777--|
|-------9-9-9-9-9----55-77---------|


T|---------------------------------------------------------0----|
|---------------------------------------------0-0-0-0-2-2---0--|
A|-------------------------------------------1------------------|
|---------------------------------------2-2--------------------|
B|--------------------------------------------------------------|
|--------------------------------------------------------------|
  Well I'm going out west Where I belong


T|-------------------------------------------------------------------0----|
|-------------------------------------------------------0-0-0-0-2-2---0--|
A|-----------------------------------------------------1------------------|
|-------------------------------------------------2-2--------------------|
B|------------------------------------------------------------------------|
|------------------------------------------------------------------------|
  Where the days are short and the nights are long


T|---------------------------------|
|---------------------------------|
A|-9>>-----------------------------|
|-9>>------------------------7~---|
B|-7>>------------------------7~---|
|----------------------------5~---|
  Where they'll walk and I'll walk
        they'll fish and I'll fish
        they'll  sin and I'll sin
        they'll  fly and I'll fly


T|------------------------------------------------------------------------|
|------------------------------------------------------------------------|
A|------------------------------------------------------------9-----------|
|-7>>---------------------------11---7-------9---------------9-----------|
B|-7>>---------------------------11---7-------9---------------7-----------|
|-5>>---------------------------9----5-------5---------------------------|
  Where they're out there having fun, in the warm California sun

~~~~~~~~~~~~~~~~~~~~~~~~~~~~~~~~~~~~~~~~~~~~~~~~~~~~~~~~~~~~~~~~~~~~~~

T|------------------------------------------------------------0----|
|------------------------------------------------0-0-0-0-2-2---0--|
A|----------------------------------------------1------------------|
|------------------------------------------2-2--------------------|
B|-----------------------------------------------------------------|
|-----------------------------------------------------------------|
  Well, I'm going out west out on the coast


T|-----------------------------------------------------------------0----|
|-----------------------------------------------------0-0-0-0-2-2---0--|
A|---------------------------------------------------1------------------|
|-----------------------------------------------2-2--------------------|
B|----------------------------------------------------------------------|
|----------------------------------------------------------------------|
  Where the California girls are really the most


T|---------------------------------|
|---------------------------------|
A|-9>>-----------------------------|
|-9>>------------------------7~---|
B|-7>>------------------------7~---|
|----------------------------5~---|
  Where they'll walk and I'll walk
        they'll fish and I'll fish
        they'll  sin and I'll sin
        they'll  fly and I'll fly


T|------------------------------------------------------------------------|
|------------------------------------------------------------------------|
A|------------------------------------------------------------9-----------|
|-7>>---------------------------11---7-------9---------------9-----------|
B|-7>>---------------------------11---7-------9---------------7-----------|
|-5>>---------------------------9----5-------5---------------------------|
  Where they're out there having fun, in the warm California sun

~~~~~~~~~~~~~~~~~~~~~~~~~~~~~~~~~~~~~~~~~~~~~~~~~~~~~~~~~~~~~~~~~~~~~~~~~~

T|----------------------------------------------------------------------
|----------------------------------------------------------------------
A|-------------------------9999999-------9999999-------9999999--------- 
|777777777777777777777777-999999977777779999999777777799999997777777--
B|777777777777777777777777-777777777777777777777777777777777777777777--
|555555555555555555555555--------555555--------5555555--------5555555--


T|------------------------------------------------|
|------------------------------------------------|
A|-9999999--------------------------------999999--|
|-9999999-7777777-11111111111111--77-99--999999--|
B|-7777777-7777777-11111111111111--77-99--777777--|
|---------5555555-9-9-9-9-9-9-9---55-77----------|

~~~~~~~~~~~~~~~~~~~~~~~~~~~~~~~~~~~~~~~~~~~~~~~~~~~~~~~~~~~~~~~~~~~~~

T|------------------------------------------------------------0----|
|------------------------------------------------0-0-0-0-2-2---0--|
A|----------------------------------------------1------------------|
|------------------------------------------2-2--------------------|
B|-----------------------------------------------------------------|
|-----------------------------------------------------------------|
  Well, the girls are frisky in old 'Frisco


T|--------------------------------------------------------0----|
|--------------------------------------------0-0-0-0-2-2---0--|
A|------------------------------------------1------------------|
|--------------------------------------2-2--------------------|
B|-------------------------------------------------------------|
|-------------------------------------------------------------|
  A pretty little chick wherever you go


T|---------------------------------|
|---------------------------------|
A|-9>>-----------------------------|
|-9>>------------------------7~---|
B|-7>>------------------------7~---|
|----------------------------5~---|
  Where they'll walk and I'll walk
        they'll fish and I'll fish
        they'll  sin and I'll sin
        they'll  fly and I'll fly


T|------------------------------------------------------------------------|
|------------------------------------------------------------------------|
A|------------------------------------------------------------9-----------|
|-7>>---------------------------11---7-------9---------------9-----------|
B|-7>>---------------------------11---7-------9---------------7-----------|
|-5>>---------------------------9----5-------5---------------------------|
  Where they're out there having fun, in the warm California sun


T|------------------------------------------------------------------------|
|------------------------------------------------------------------------|
A|------------------------------------------------------------9-----------|
|-7>>---------------------------11---7-------9---------------9-----------|
B|-7>>---------------------------11---7-------9---------------7-----------|
|-5>>---------------------------9----5-------5---------------------------|
  Where they're out there having fun, in the warm California sun
Komentari
Još nema komentara